ISO-10303-21;
HEADER;
FILE_DESCRIPTION(('STEP'), '1');
FILE_NAME('R217.13-030070AC6H 1630.stp', '2018-03-13T14:11:37', ('TDM Systems GmbH'), ('TDM Systems GmbH'), 'HarmonyWare STEP v2.0.6.4 Express v2.2.0.0', 'TDM', 'Unknown');
FILE_SCHEMA(('AUTOMOTIVE_DESIGN'));
ENDSEC;

DATA;
#1 = DRAUGHTING_MODEL('', (#28, #40, #52, #64, #277, #405), #406);
#2 = CARTESIAN_POINT('CRP', (-1.5, 3.39839486763391E-15, -54.));
#3 = GEOMETRIC_SET('', (#2, #16, #29, #41, #53));
#4 = AXIS2_PLACEMENT_3D('CIP', #5, #6, #7);
#5 = CARTESIAN_POINT('', (2.02467570659351E-31, 3.30654635769785E-15, -54.));
#6 = DIRECTION('', (-3.74939945665464E-33, -6.12323399573677E-17, 1.));
#7 = DIRECTION('', (1., -6.12323399573677E-17, 0.));
#8 = AXIS2_PLACEMENT_3D('MCS', #9, #10, #11);
#9 = CARTESIAN_POINT('', (1.34978380439567E-31, 2.20436423846524E-15, -36.));
#10 = DIRECTION('', (-3.74939945665464E-33, -6.12323399573677E-17, 1.));
#11 = DIRECTION('', (1., -6.12323399573677E-17, 0.));
#12 = AXIS2_PLACEMENT_3D('PCS', #13, #14, #15);
#13 = CARTESIAN_POINT('', (6.74700668366753E-80, -4.13135006948962E-96, 0.));
#14 = DIRECTION('', (0., 0., 1.));
#15 = DIRECTION('', (1., 0., 0.));
#16 = TRIMMED_CURVE('cutting part line', #17, (#21), (#22), .T., .CARTESIAN.);
#17 = LINE('', #18, #19);
#18 = CARTESIAN_POINT('', (-0.8937825, 2.97551100985438E-15, -47.7));
#19 = VECTOR('', #20, 0.6062175);
#20 = DIRECTION('', (-0.6062175, 3.71201160481055E-17, 0.));
#21 = CARTESIAN_POINT('', (-0.8937825, 2.97551100985438E-15, -47.7));
#22 = CARTESIAN_POINT('', (-1.5, 3.01263112590249E-15, -47.7));
#23 = PRESENTATION_LAYER_ASSIGNMENT('', '', (#16, #29, #41, #53, #278));
#24 = PRESENTATION_STYLE_ASSIGNMENT((#25));
#25 = CURVE_STYLE('', #27, POSITIVE_LENGTH_MEASURE(1.E-6), #26);
#26 = COLOUR_RGB('', 0., 0., 1.);
#27 = DRAUGHTING_PRE_DEFINED_CURVE_FONT('continuous');
#28 = STYLED_ITEM('', (#24), #16);
#29 = TRIMMED_CURVE('cutting part line', #30, (#34), (#35), .T., .CARTESIAN.);
#30 = LINE('', #31, #32);
#31 = CARTESIAN_POINT('', (-1.5, 3.01263112590249E-15, -47.7));
#32 = VECTOR('', #33, 6.3);
#33 = DIRECTION('', (0., 3.85763741731416E-16, -6.3));
#34 = CARTESIAN_POINT('', (-1.5, 3.01263112590249E-15, -47.7));
#35 = CARTESIAN_POINT('', (-1.5, 3.39839486763391E-15, -54.));
#36 = PRESENTATION_STYLE_ASSIGNMENT((#37));
#37 = CURVE_STYLE('', #39, POSITIVE_LENGTH_MEASURE(1.E-6), #38);
#38 = COLOUR_RGB('', 0., 0., 1.);
#39 = DRAUGHTING_PRE_DEFINED_CURVE_FONT('continuous');
#40 = STYLED_ITEM('', (#36), #29);
#41 = TRIMMED_CURVE('cutting part line', #42, (#46), (#47), .T., .CARTESIAN.);
#42 = LINE('', #43, #44);
#43 = CARTESIAN_POINT('', (-1.5, 3.39839486763391E-15, -54.));
#44 = VECTOR('', #45, 0.6062175);
#45 = DIRECTION('', (0.6062175, -3.71201160481055E-17, 0.));
#46 = CARTESIAN_POINT('', (-1.5, 3.39839486763391E-15, -54.));
#47 = CARTESIAN_POINT('', (-0.8937825, 3.3612747515858E-15, -54.));
#48 = PRESENTATION_STYLE_ASSIGNMENT((#49));
#49 = CURVE_STYLE('', #51, POSITIVE_LENGTH_MEASURE(1.E-6), #50);
#50 = COLOUR_RGB('', 0., 0., 1.);
#51 = DRAUGHTING_PRE_DEFINED_CURVE_FONT('continuous');
#52 = STYLED_ITEM('', (#48), #41);
#53 = TRIMMED_CURVE('cutting part line', #54, (#58), (#59), .T., .CARTESIAN.);
#54 = LINE('', #55, #56);
#55 = CARTESIAN_POINT('', (-0.8937825, 3.3612747515858E-15, -54.));
#56 = VECTOR('', #57, 6.3);
#57 = DIRECTION('', (0., -3.85763741731416E-16, 6.3));
#58 = CARTESIAN_POINT('', (-0.8937825, 3.3612747515858E-15, -54.));
#59 = CARTESIAN_POINT('', (-0.8937825, 2.97551100985438E-15, -47.7));
#60 = PRESENTATION_STYLE_ASSIGNMENT((#61));
#61 = CURVE_STYLE('', #63, POSITIVE_LENGTH_MEASURE(1.E-6), #62);
#62 = COLOUR_RGB('', 0., 0., 1.);
#63 = DRAUGHTING_PRE_DEFINED_CURVE_FONT('continuous');
#64 = STYLED_ITEM('', (#60), #53);
#65 = MANIFOLD_SOLID_BREP('NOCUT', #66);
#66 = CLOSED_SHELL('', (#67, #114, #161, #170, #201, #218, #238));
#67 = ADVANCED_FACE('', (#68), #95, .T.);
#68 = FACE_OUTER_BOUND('', #69, .T.);
#69 = EDGE_LOOP('', (#70, #80, #87, #88));
#70 = ORIENTED_EDGE('', *, *, #71, .F.);
#71 = EDGE_CURVE('', #72, #74, #76, .T.);
#72 = VERTEX_POINT('', #73);
#73 = CARTESIAN_POINT('', (-3., 2.63911385216255E-15, -40.1));
#74 = VERTEX_POINT('', #75);
#75 = CARTESIAN_POINT('', (-1.5, 3.01263112590249E-15, -47.7));
#76 = LINE('', #77, #78);
#77 = CARTESIAN_POINT('', (-3., 2.63911385216255E-15, -40.1));
#78 = VECTOR('', #79, 7.74661216274573);
#79 = DIRECTION('', (1.5, 3.73517273739943E-16, -7.6));
#80 = ORIENTED_EDGE('', *, *, #81, .T.);
#81 = EDGE_CURVE('', #72, #72, #82, .T.);
#82 = CIRCLE('', #83, 3.);
#83 = AXIS2_PLACEMENT_3D('', #84, #85, #86);
#84 = CARTESIAN_POINT('', (1.50350918211851E-31, 2.45541683229044E-15, -40.1));
#85 = DIRECTION('', (3.74939945665464E-33, 6.12323399573677E-17, -1.));
#86 = DIRECTION('', (-1., 6.12323399573677E-17, 0.));
#87 = ORIENTED_EDGE('', *, *, #71, .T.);
#88 = ORIENTED_EDGE('', *, *, #89, .F.);
#89 = EDGE_CURVE('', #74, #74, #90, .T.);
#90 = CIRCLE('', #91, 1.5);
#91 = AXIS2_PLACEMENT_3D('', #92, #93, #94);
#92 = CARTESIAN_POINT('', (1.78846354082427E-31, 2.92078261596644E-15, -47.7));
#93 = DIRECTION('', (3.74939945665464E-33, 6.12323399573677E-17, -1.));
#94 = DIRECTION('', (-1., 6.12323399573677E-17, 0.));
#95 = (
   BOUNDED_SURFACE ()
   B_SPLINE_SURFACE (2, 1, ((#96, #97), (#98, #99), (#100, #101), (#102, #103), (#104, #105), (#106, #107), (#108, #109), (#110, #111), (#112, #113)), .UNSPECIFIED., .T., .F., .U.)
   B_SPLINE_SURFACE_WITH_KNOTS ((3, 2, 2, 2, 3), (2, 2), (0., 0.25, 0.5, 0.75, 1.), (0., 1.), .UNSPECIFIED.)
   GEOMETRIC_REPRESENTATION_ITEM ()
   RATIONAL_B_SPLINE_SURFACE (((1., 1.), (0.707106781186548, 0.707106781186548), (1., 1.), (0.707106781186548, 0.707106781186548), (1., 1.), (0.707106781186548, 0.707106781186548), (1., 1.), (0.707106781186548, 0.707106781186548), (1., 1.)))
   REPRESENTATION_ITEM ('')
   SURFACE ()
);
#96 = CARTESIAN_POINT('', (-3., 2.63911385216255E-15, -40.1));
#97 = CARTESIAN_POINT('', (-1.5, 3.01263112590249E-15, -47.7));
#98 = CARTESIAN_POINT('', (-3., 3., -40.1));
#99 = CARTESIAN_POINT('', (-1.5, 1.5, -47.7));
#100 = CARTESIAN_POINT('', (1.4791141972894E-31, 3., -40.1));
#101 = CARTESIAN_POINT('', (1.84889274661175E-31, 1.5, -47.7));
#102 = CARTESIAN_POINT('', (3., 3., -40.1));
#103 = CARTESIAN_POINT('', (1.5, 1.5, -47.7));
#104 = CARTESIAN_POINT('', (3., 2.63911385216255E-15, -40.1));
#105 = CARTESIAN_POINT('', (1.5, 3.01263112590249E-15, -47.7));
#106 = CARTESIAN_POINT('', (3., -3., -40.1));
#107 = CARTESIAN_POINT('', (1.5, -1.5, -47.7));
#108 = CARTESIAN_POINT('', (3.67394039744206E-16, -3., -40.1));
#109 = CARTESIAN_POINT('', (1.83697019872103E-16, -1.5, -47.7));
#110 = CARTESIAN_POINT('', (-3., -3., -40.1));
#111 = CARTESIAN_POINT('', (-1.5, -1.5, -47.7));
#112 = CARTESIAN_POINT('', (-3., 2.63911385216255E-15, -40.1));
#113 = CARTESIAN_POINT('', (-1.5, 3.01263112590249E-15, -47.7));
#114 = ADVANCED_FACE('', (#115), #142, .T.);
#115 = FACE_OUTER_BOUND('', #116, .T.);
#116 = EDGE_LOOP('', (#117, #127, #134, #135));
#117 = ORIENTED_EDGE('', *, *, #118, .T.);
#118 = EDGE_CURVE('', #119, #121, #123, .T.);
#119 = VERTEX_POINT('', #120);
#120 = CARTESIAN_POINT('', (-3., 2.02066721859313E-16, -0.299999999999997));
#121 = VERTEX_POINT('', #122);
#122 = CARTESIAN_POINT('', (-2.7, 1.65327317884893E-16, 0.));
#123 = LINE('', #124, #125);
#124 = CARTESIAN_POINT('', (-3., 2.02066721859313E-16, -0.299999999999997));
#125 = VECTOR('', #126, 0.424264068711926);
#126 = DIRECTION('', (0.3, -3.67394039744205E-17, 0.299999999999997));
#127 = ORIENTED_EDGE('', *, *, #128, .T.);
#128 = EDGE_CURVE('', #121, #121, #129, .T.);
#129 = CIRCLE('', #130, 2.7);
#130 = AXIS2_PLACEMENT_3D('', #131, #132, #133);
#131 = CARTESIAN_POINT('', (6.74700668366753E-80, -4.13135006948962E-96, 0.));
#132 = DIRECTION('', (3.74939945665464E-33, 6.12323399573677E-17, -1.));
#133 = DIRECTION('', (-1., 6.12323399573677E-17, 0.));
#134 = ORIENTED_EDGE('', *, *, #118, .F.);
#135 = ORIENTED_EDGE('', *, *, #136, .F.);
#136 = EDGE_CURVE('', #119, #119, #137, .T.);
#137 = CIRCLE('', #138, 3.);
#138 = AXIS2_PLACEMENT_3D('', #139, #140, #141);
#139 = CARTESIAN_POINT('', (1.12481983699637E-33, 1.836970198721E-17, -0.299999999999997));
#140 = DIRECTION('', (3.74939945665464E-33, 6.12323399573677E-17, -1.));
#141 = DIRECTION('', (-1., 6.12323399573677E-17, 0.));
#142 = (
   BOUNDED_SURFACE ()
   B_SPLINE_SURFACE (1, 2, ((#143, #144, #145, #146, #147, #148, #149, #150, #151), (#152, #153, #154, #155, #156, #157, #158, #159, #160)), .UNSPECIFIED., .F., .T., .U.)
   B_SPLINE_SURFACE_WITH_KNOTS ((2, 2), (3, 2, 2, 2, 3), (0., 1.), (0., 0.25, 0.5, 0.75, 1.), .UNSPECIFIED.)
   GEOMETRIC_REPRESENTATION_ITEM ()
   RATIONAL_B_SPLINE_SURFACE (((1., 0.707106781186548, 1., 0.707106781186548, 1., 0.707106781186548, 1., 0.707106781186548, 1.), (1., 0.707106781186548, 1., 0.707106781186548, 1., 0.707106781186548, 1., 0.707106781186548, 1.)))
   REPRESENTATION_ITEM ('')
   SURFACE ()
);
#143 = CARTESIAN_POINT('', (-3., 2.02066721859313E-16, -0.299999999999997));
#144 = CARTESIAN_POINT('', (-3., 3., -0.299999999999997));
#145 = CARTESIAN_POINT('', (0., 3., -0.299999999999997));
#146 = CARTESIAN_POINT('', (3., 3., -0.299999999999997));
#147 = CARTESIAN_POINT('', (3., 2.02066721859313E-16, -0.299999999999997));
#148 = CARTESIAN_POINT('', (3., -3., -0.299999999999997));
#149 = CARTESIAN_POINT('', (3.67394039744206E-16, -3., -0.299999999999997));
#150 = CARTESIAN_POINT('', (-3., -3., -0.299999999999997));
#151 = CARTESIAN_POINT('', (-3., 2.02066721859313E-16, -0.299999999999997));
#152 = CARTESIAN_POINT('', (-2.7, 1.65327317884893E-16, 0.));
#153 = CARTESIAN_POINT('', (-2.7, 2.7, 1.65327317884893E-16));
#154 = CARTESIAN_POINT('', (0., 2.7, 1.65327317884893E-16));
#155 = CARTESIAN_POINT('', (2.7, 2.7, 1.65327317884893E-16));
#156 = CARTESIAN_POINT('', (2.7, 1.65327317884893E-16, 2.02467570659351E-32));
#157 = CARTESIAN_POINT('', (2.7, -2.7, -1.65327317884893E-16));
#158 = CARTESIAN_POINT('', (3.30654635769785E-16, -2.7, -1.65327317884893E-16));
#159 = CARTESIAN_POINT('', (-2.7, -2.7, -1.65327317884893E-16));
#160 = CARTESIAN_POINT('', (-2.7, 1.65327317884893E-16, 0.));
#161 = ADVANCED_FACE('', (#162), #165, .T.);
#162 = FACE_OUTER_BOUND('', #163, .T.);
#163 = EDGE_LOOP('', (#164));
#164 = ORIENTED_EDGE('', *, *, #128, .F.);
#165 = PLANE('', #166);
#166 = AXIS2_PLACEMENT_3D('', #167, #168, #169);
#167 = CARTESIAN_POINT('', (4.20021428024809, -4.20021428024809, 1.07962619604318E-14));
#168 = DIRECTION('', (-2.63163976207445E-15, -6.12323399573677E-17, 1.));
#169 = DIRECTION('', (0., 1., 6.12323399573677E-17));
#170 = ADVANCED_FACE('', (#171), #182, .T.);
#171 = FACE_OUTER_BOUND('', #172, .T.);
#172 = EDGE_LOOP('', (#173, #179, #180, #181));
#173 = ORIENTED_EDGE('', *, *, #174, .T.);
#174 = EDGE_CURVE('', #72, #119, #175, .T.);
#175 = LINE('', #176, #177);
#176 = CARTESIAN_POINT('', (-3., 2.63911385216255E-15, -40.1));
#177 = VECTOR('', #178, 39.8);
#178 = DIRECTION('', (0., -2.43704713030323E-15, 39.8));
#179 = ORIENTED_EDGE('', *, *, #136, .T.);
#180 = ORIENTED_EDGE('', *, *, #174, .F.);
#181 = ORIENTED_EDGE('', *, *, #81, .F.);
#182 = (
   BOUNDED_SURFACE ()
   B_SPLINE_SURFACE (1, 2, ((#183, #184, #185, #186, #187, #188, #189, #190, #191), (#192, #193, #194, #195, #196, #197, #198, #199, #200)), .UNSPECIFIED., .F., .T., .U.)
   B_SPLINE_SURFACE_WITH_KNOTS ((2, 2), (3, 2, 2, 2, 3), (0., 1.), (0., 4.71238898038469, 9.42477796076938, 14.1371669411541, 18.8495559215388), .UNSPECIFIED.)
   GEOMETRIC_REPRESENTATION_ITEM ()
   RATIONAL_B_SPLINE_SURFACE (((1., 0.707106781186548, 1., 0.707106781186548, 1., 0.707106781186548, 1., 0.707106781186548, 1.), (1., 0.707106781186548, 1., 0.707106781186548, 1., 0.707106781186548, 1., 0.707106781186548, 1.)))
   REPRESENTATION_ITEM ('')
   SURFACE ()
);
#183 = CARTESIAN_POINT('', (-3., 2.63911385216255E-15, -40.1));
#184 = CARTESIAN_POINT('', (-3., 3., -40.1));
#185 = CARTESIAN_POINT('', (1.4791141972894E-31, 3., -40.1));
#186 = CARTESIAN_POINT('', (3., 3., -40.1));
#187 = CARTESIAN_POINT('', (3., 2.63911385216255E-15, -40.1));
#188 = CARTESIAN_POINT('', (3., -3., -40.1));
#189 = CARTESIAN_POINT('', (3.67394039744206E-16, -3., -40.1));
#190 = CARTESIAN_POINT('', (-3., -3., -40.1));
#191 = CARTESIAN_POINT('', (-3., 2.63911385216255E-15, -40.1));
#192 = CARTESIAN_POINT('', (-3., 2.02066721859313E-16, -0.299999999999997));
#193 = CARTESIAN_POINT('', (-3., 3., -0.299999999999997));
#194 = CARTESIAN_POINT('', (0., 3., -0.299999999999997));
#195 = CARTESIAN_POINT('', (3., 3., -0.299999999999997));
#196 = CARTESIAN_POINT('', (3., 2.02066721859313E-16, -0.299999999999997));
#197 = CARTESIAN_POINT('', (3., -3., -0.299999999999997));
#198 = CARTESIAN_POINT('', (3.67394039744206E-16, -3., -0.299999999999997));
#199 = CARTESIAN_POINT('', (-3., -3., -0.299999999999997));
#200 = CARTESIAN_POINT('', (-3., 2.02066721859313E-16, -0.299999999999997));
#201 = ADVANCED_FACE('', (#202), #213, .T.);
#202 = FACE_OUTER_BOUND('', #203, .T.);
#203 = EDGE_LOOP('', (#204));
#204 = ORIENTED_EDGE('', *, *, #205, .T.);
#205 = EDGE_CURVE('', #206, #206, #208, .T.);
#206 = VERTEX_POINT('', #207);
#207 = CARTESIAN_POINT('', (-0.8937825, 3.3612747515858E-15, -54.));
#208 = CIRCLE('', #209, 0.893782499999987);
#209 = AXIS2_PLACEMENT_3D('', #210, #211, #212);
#210 = CARTESIAN_POINT('', (2.02467570659351E-31, 3.30654635769785E-15, -54.));
#211 = DIRECTION('', (3.74939945665464E-33, 6.12323399573677E-17, -1.));
#212 = DIRECTION('', (-1., 6.12323399573677E-17, 0.));
#213 = PLANE('', #214);
#214 = AXIS2_PLACEMENT_3D('', #215, #216, #217);
#215 = CARTESIAN_POINT('', (2.33345237791561, -2.3334523779156, -54.));
#216 = DIRECTION('', (0., 0., -1.));
#217 = DIRECTION('', (-1., 9.51571187081076E-17, 0.));
#218 = ADVANCED_FACE('', (#219, #222), #233, .T.);
#219 = FACE_OUTER_BOUND('', #220, .T.);
#220 = EDGE_LOOP('', (#221));
#221 = ORIENTED_EDGE('', *, *, #89, .T.);
#222 = FACE_BOUND('', #223, .T.);
#223 = EDGE_LOOP('', (#224));
#224 = ORIENTED_EDGE('', *, *, #225, .F.);
#225 = EDGE_CURVE('', #226, #226, #228, .T.);
#226 = VERTEX_POINT('', #227);
#227 = CARTESIAN_POINT('', (-0.8937825, 2.97551100985438E-15, -47.7));
#228 = CIRCLE('', #229, 0.8937825);
#229 = AXIS2_PLACEMENT_3D('', #230, #231, #232);
#230 = CARTESIAN_POINT('', (1.78846354082427E-31, 2.92078261596644E-15, -47.7));
#231 = DIRECTION('', (3.74939945665464E-33, 6.12323399573677E-17, -1.));
#232 = DIRECTION('', (-1., 6.12323399573677E-17, 0.));
#233 = PLANE('', #234);
#234 = AXIS2_PLACEMENT_3D('', #235, #236, #237);
#235 = CARTESIAN_POINT('', (2.33345237791561, -2.3334523779156, -47.7));
#236 = DIRECTION('', (0., 0., -1.));
#237 = DIRECTION('', (-1., 0., 0.));
#238 = ADVANCED_FACE('', (#239), #250, .T.);
#239 = FACE_OUTER_BOUND('', #240, .T.);
#240 = EDGE_LOOP('', (#241, #247, #248, #249));
#241 = ORIENTED_EDGE('', *, *, #242, .T.);
#242 = EDGE_CURVE('', #206, #226, #243, .T.);
#243 = LINE('', #244, #245);
#244 = CARTESIAN_POINT('', (-0.8937825, 3.3612747515858E-15, -54.));
#245 = VECTOR('', #246, 6.3);
#246 = DIRECTION('', (0., -3.85763741731416E-16, 6.3));
#247 = ORIENTED_EDGE('', *, *, #225, .T.);
#248 = ORIENTED_EDGE('', *, *, #242, .F.);
#249 = ORIENTED_EDGE('', *, *, #205, .F.);
#250 = (
   BOUNDED_SURFACE ()
   B_SPLINE_SURFACE (1, 2, ((#251, #252, #253, #254, #255, #256, #257, #258, #259), (#260, #261, #262, #263, #264, #265, #266, #267, #268)), .UNSPECIFIED., .F., .T., .U.)
   B_SPLINE_SURFACE_WITH_KNOTS ((2, 2), (3, 2, 2, 2, 3), (0., 1.), (0., 1.40395026795356, 2.80790053590712, 4.21185080386068, 5.61580107181424), .UNSPECIFIED.)
   GEOMETRIC_REPRESENTATION_ITEM ()
   RATIONAL_B_SPLINE_SURFACE (((1., 0.707106781186548, 1., 0.707106781186548, 1., 0.707106781186548, 1., 0.707106781186548, 1.), (1., 0.707106781186548, 1., 0.707106781186548, 1., 0.707106781186548, 1., 0.707106781186548, 1.)))
   REPRESENTATION_ITEM ('')
   SURFACE ()
);
#251 = CARTESIAN_POINT('', (-0.8937825, 3.3612747515858E-15, -54.));
#252 = CARTESIAN_POINT('', (-0.8937825, 0.893782500000003, -54.));
#253 = CARTESIAN_POINT('', (2.03378202127292E-31, 0.893782500000003, -54.));
#254 = CARTESIAN_POINT('', (0.8937825, 0.893782500000003, -54.));
#255 = CARTESIAN_POINT('', (0.8937825, 3.3612747515858E-15, -54.));
#256 = CARTESIAN_POINT('', (0.8937825, -0.893782499999997, -54.));
#257 = CARTESIAN_POINT('', (1.09456787775892E-16, -0.893782499999997, -54.));
#258 = CARTESIAN_POINT('', (-0.8937825, -0.893782499999997, -54.));
#259 = CARTESIAN_POINT('', (-0.8937825, 3.3612747515858E-15, -54.));
#260 = CARTESIAN_POINT('', (-0.8937825, 2.97551100985438E-15, -47.7));
#261 = CARTESIAN_POINT('', (-0.8937825, 0.893782500000003, -47.7));
#262 = CARTESIAN_POINT('', (1.78726298839135E-31, 0.893782500000003, -47.7));
#263 = CARTESIAN_POINT('', (0.8937825, 0.893782500000003, -47.7));
#264 = CARTESIAN_POINT('', (0.8937825, 2.97551100985438E-15, -47.7));
#265 = CARTESIAN_POINT('', (0.8937825, -0.893782499999997, -47.7));
#266 = CARTESIAN_POINT('', (1.09456787775892E-16, -0.893782499999997, -47.7));
#267 = CARTESIAN_POINT('', (-0.8937825, -0.893782499999997, -47.7));
#268 = CARTESIAN_POINT('', (-0.8937825, 2.97551100985438E-15, -47.7));
#269 = PRESENTATION_LAYER_ASSIGNMENT('', '', (#65));
#270 = PRESENTATION_STYLE_ASSIGNMENT((#271));
#271 = SURFACE_STYLE_USAGE(.POSITIVE., #272);
#272 = SURFACE_SIDE_STYLE('', (#273));
#273 = SURFACE_STYLE_FILL_AREA(#274);
#274 = FILL_AREA_STYLE('', (#275));
#275 = FILL_AREA_STYLE_COLOUR('', #276);
#276 = COLOUR_RGB('', 0.50196078431373, 0.50196078431373, 0.50196078431373);
#277 = STYLED_ITEM('', (#270), #65);
#278 = MANIFOLD_SOLID_BREP('CUT', #279);
#279 = CLOSED_SHELL('', (#280, #308, #347, #367));
#280 = ADVANCED_FACE('', (#281, #292), #303, .T.);
#281 = FACE_OUTER_BOUND('', #282, .T.);
#282 = EDGE_LOOP('', (#283));
#283 = ORIENTED_EDGE('', *, *, #284, .T.);
#284 = EDGE_CURVE('', #285, #285, #287, .T.);
#285 = VERTEX_POINT('', #286);
#286 = CARTESIAN_POINT('', (-1.5, 3.39839486763391E-15, -54.));
#287 = CIRCLE('', #288, 1.5);
#288 = AXIS2_PLACEMENT_3D('', #289, #290, #291);
#289 = CARTESIAN_POINT('', (2.02467570659351E-31, 3.30654635769785E-15, -54.));
#290 = DIRECTION('', (3.74939945665464E-33, 6.12323399573677E-17, -1.));
#291 = DIRECTION('', (-1., 6.12323399573677E-17, 0.));
#292 = FACE_BOUND('', #293, .T.);
#293 = EDGE_LOOP('', (#294));
#294 = ORIENTED_EDGE('', *, *, #295, .F.);
#295 = EDGE_CURVE('', #296, #296, #298, .T.);
#296 = VERTEX_POINT('', #297);
#297 = CARTESIAN_POINT('', (-0.8937825, 3.3612747515858E-15, -54.));
#298 = CIRCLE('', #299, 0.8937825);
#299 = AXIS2_PLACEMENT_3D('', #300, #301, #302);
#300 = CARTESIAN_POINT('', (2.02467570659351E-31, 3.30654635769785E-15, -54.));
#301 = DIRECTION('', (3.74939945665464E-33, 6.12323399573677E-17, -1.));
#302 = DIRECTION('', (-1., 6.12323399573677E-17, 0.));
#303 = PLANE('', #304);
#304 = AXIS2_PLACEMENT_3D('', #305, #306, #307);
#305 = CARTESIAN_POINT('', (2.33345237791561, -2.3334523779156, -54.));
#306 = DIRECTION('', (0., 0., -1.));
#307 = DIRECTION('', (-1., 0., 0.));
#308 = ADVANCED_FACE('', (#309), #328, .T.);
#309 = FACE_OUTER_BOUND('', #310, .T.);
#310 = EDGE_LOOP('', (#311, #319, #320, #321));
#311 = ORIENTED_EDGE('', *, *, #312, .F.);
#312 = EDGE_CURVE('', #296, #313, #315, .T.);
#313 = VERTEX_POINT('', #314);
#314 = CARTESIAN_POINT('', (-0.8937825, 2.97551100985438E-15, -47.7));
#315 = LINE('', #316, #317);
#316 = CARTESIAN_POINT('', (-0.8937825, 3.3612747515858E-15, -54.));
#317 = VECTOR('', #318, 6.3);
#318 = DIRECTION('', (0., -3.85763741731416E-16, 6.3));
#319 = ORIENTED_EDGE('', *, *, #295, .T.);
#320 = ORIENTED_EDGE('', *, *, #312, .T.);
#321 = ORIENTED_EDGE('', *, *, #322, .F.);
#322 = EDGE_CURVE('', #313, #313, #323, .T.);
#323 = CIRCLE('', #324, 0.8937825);
#324 = AXIS2_PLACEMENT_3D('', #325, #326, #327);
#325 = CARTESIAN_POINT('', (1.78846354082427E-31, 2.92078261596644E-15, -47.7));
#326 = DIRECTION('', (3.74939945665464E-33, 6.12323399573677E-17, -1.));
#327 = DIRECTION('', (-1., 6.12323399573677E-17, 0.));
#328 = (
   BOUNDED_SURFACE ()
   B_SPLINE_SURFACE (2, 1, ((#329, #330), (#331, #332), (#333, #334), (#335, #336), (#337, #338), (#339, #340), (#341, #342), (#343, #344), (#345, #346)), .UNSPECIFIED., .T., .F., .U.)
   B_SPLINE_SURFACE_WITH_KNOTS ((3, 2, 2, 2, 3), (2, 2), (0., 1.40395026795356, 2.80790053590712, 4.21185080386068, 5.61580107181424), (0., 1.), .UNSPECIFIED.)
   GEOMETRIC_REPRESENTATION_ITEM ()
   RATIONAL_B_SPLINE_SURFACE (((1., 1.), (0.707106781186548, 0.707106781186548), (1., 1.), (0.707106781186548, 0.707106781186548), (1., 1.), (0.707106781186548, 0.707106781186548), (1., 1.), (0.707106781186548, 0.707106781186548), (1., 1.)))
   REPRESENTATION_ITEM ('')
   SURFACE ()
);
#329 = CARTESIAN_POINT('', (-0.8937825, 3.3612747515858E-15, -54.));
#330 = CARTESIAN_POINT('', (-0.8937825, 2.97551100985438E-15, -47.7));
#331 = CARTESIAN_POINT('', (-0.8937825, 0.893782500000003, -54.));
#332 = CARTESIAN_POINT('', (-0.8937825, 0.893782500000003, -47.7));
#333 = CARTESIAN_POINT('', (2.03378202127292E-31, 0.893782500000003, -54.));
#334 = CARTESIAN_POINT('', (1.72563323017096E-31, 0.893782500000003, -47.7));
#335 = CARTESIAN_POINT('', (0.8937825, 0.893782500000003, -54.));
#336 = CARTESIAN_POINT('', (0.8937825, 0.893782500000003, -47.7));
#337 = CARTESIAN_POINT('', (0.8937825, 3.3612747515858E-15, -54.));
#338 = CARTESIAN_POINT('', (0.8937825, 2.97551100985438E-15, -47.7));
#339 = CARTESIAN_POINT('', (0.8937825, -0.893782499999997, -54.));
#340 = CARTESIAN_POINT('', (0.8937825, -0.893782499999997, -47.7));
#341 = CARTESIAN_POINT('', (1.09456787775892E-16, -0.893782499999997, -54.));
#342 = CARTESIAN_POINT('', (1.09456787775892E-16, -0.893782499999997, -47.7));
#343 = CARTESIAN_POINT('', (-0.8937825, -0.893782499999997, -54.));
#344 = CARTESIAN_POINT('', (-0.8937825, -0.893782499999997, -47.7));
#345 = CARTESIAN_POINT('', (-0.8937825, 3.3612747515858E-15, -54.));
#346 = CARTESIAN_POINT('', (-0.8937825, 2.97551100985438E-15, -47.7));
#347 = ADVANCED_FACE('', (#348, #359), #362, .T.);
#348 = FACE_OUTER_BOUND('', #349, .T.);
#349 = EDGE_LOOP('', (#350));
#350 = ORIENTED_EDGE('', *, *, #351, .F.);
#351 = EDGE_CURVE('', #352, #352, #354, .T.);
#352 = VERTEX_POINT('', #353);
#353 = CARTESIAN_POINT('', (-1.5, 3.01263112590249E-15, -47.7));
#354 = CIRCLE('', #355, 1.5);
#355 = AXIS2_PLACEMENT_3D('', #356, #357, #358);
#356 = CARTESIAN_POINT('', (1.78846354082427E-31, 2.92078261596644E-15, -47.7));
#357 = DIRECTION('', (3.74939945665464E-33, 6.12323399573677E-17, -1.));
#358 = DIRECTION('', (-1., 6.12323399573677E-17, 0.));
#359 = FACE_BOUND('', #360, .T.);
#360 = EDGE_LOOP('', (#361));
#361 = ORIENTED_EDGE('', *, *, #322, .T.);
#362 = PLANE('', #363);
#363 = AXIS2_PLACEMENT_3D('', #364, #365, #366);
#364 = CARTESIAN_POINT('', (2.33345237791561, -2.3334523779156, -47.7));
#365 = DIRECTION('', (0., 1.52251389932972E-15, 1.));
#366 = DIRECTION('', (0., 1., -1.52251389932972E-15));
#367 = ADVANCED_FACE('', (#368), #379, .T.);
#368 = FACE_OUTER_BOUND('', #369, .T.);
#369 = EDGE_LOOP('', (#370, #376, #377, #378));
#370 = ORIENTED_EDGE('', *, *, #371, .F.);
#371 = EDGE_CURVE('', #352, #285, #372, .T.);
#372 = LINE('', #373, #374);
#373 = CARTESIAN_POINT('', (-1.5, 3.01263112590249E-15, -47.7));
#374 = VECTOR('', #375, 6.3);
#375 = DIRECTION('', (0., 3.85763741731416E-16, -6.3));
#376 = ORIENTED_EDGE('', *, *, #351, .T.);
#377 = ORIENTED_EDGE('', *, *, #371, .T.);
#378 = ORIENTED_EDGE('', *, *, #284, .F.);
#379 = (
   BOUNDED_SURFACE ()
   B_SPLINE_SURFACE (2, 1, ((#380, #381), (#382, #383), (#384, #385), (#386, #387), (#388, #389), (#390, #391), (#392, #393), (#394, #395), (#396, #397)), .UNSPECIFIED., .T., .F., .U.)
   B_SPLINE_SURFACE_WITH_KNOTS ((3, 2, 2, 2, 3), (2, 2), (0., 2.35619449019235, 4.71238898038469, 7.06858347057704, 9.42477796076938), (0., 1.), .UNSPECIFIED.)
   GEOMETRIC_REPRESENTATION_ITEM ()
   RATIONAL_B_SPLINE_SURFACE (((1., 1.), (0.707106781186548, 0.707106781186548), (1., 1.), (0.707106781186548, 0.707106781186548), (1., 1.), (0.707106781186548, 0.707106781186548), (1., 1.), (0.707106781186548, 0.707106781186548), (1., 1.)))
   REPRESENTATION_ITEM ('')
   SURFACE ()
);
#380 = CARTESIAN_POINT('', (-1.5, 3.01263112590249E-15, -47.7));
#381 = CARTESIAN_POINT('', (-1.5, 3.39839486763391E-15, -54.));
#382 = CARTESIAN_POINT('', (-1.5, 1.5, -47.7));
#383 = CARTESIAN_POINT('', (-1.5, 1.5, -54.));
#384 = CARTESIAN_POINT('', (1.84889274661175E-31, 1.5, -47.7));
#385 = CARTESIAN_POINT('', (2.09541177949331E-31, 1.5, -54.));
#386 = CARTESIAN_POINT('', (1.5, 1.5, -47.7));
#387 = CARTESIAN_POINT('', (1.5, 1.5, -54.));
#388 = CARTESIAN_POINT('', (1.5, 3.01263112590249E-15, -47.7));
#389 = CARTESIAN_POINT('', (1.5, 3.39839486763391E-15, -54.));
#390 = CARTESIAN_POINT('', (1.5, -1.5, -47.7));
#391 = CARTESIAN_POINT('', (1.5, -1.5, -54.));
#392 = CARTESIAN_POINT('', (1.83697019872103E-16, -1.5, -47.7));
#393 = CARTESIAN_POINT('', (1.83697019872103E-16, -1.5, -54.));
#394 = CARTESIAN_POINT('', (-1.5, -1.5, -47.7));
#395 = CARTESIAN_POINT('', (-1.5, -1.5, -54.));
#396 = CARTESIAN_POINT('', (-1.5, 3.01263112590249E-15, -47.7));
#397 = CARTESIAN_POINT('', (-1.5, 3.39839486763391E-15, -54.));
#398 = PRESENTATION_STYLE_ASSIGNMENT((#399));
#399 = SURFACE_STYLE_USAGE(.POSITIVE., #400);
#400 = SURFACE_SIDE_STYLE('', (#401));
#401 = SURFACE_STYLE_FILL_AREA(#402);
#402 = FILL_AREA_STYLE('', (#403));
#403 = FILL_AREA_STYLE_COLOUR('', #404);
#404 = COLOUR_RGB('', 0.8, 0.8, 0.8);
#405 = STYLED_ITEM('', (#398), #278);
#406 = (
   GEOMETRIC_REPRESENTATION_CONTEXT (3)
   GLOBAL_UNCERTAINTY_ASSIGNED_CONTEXT ((#408))
   GLOBAL_UNIT_ASSIGNED_CONTEXT ((#407, #409, #410))
   REPRESENTATION_CONTEXT ('', '3D')
);
#407 = (
   LENGTH_UNIT ()
   NAMED_UNIT (*)
   SI_UNIT (.MILLI., .METRE.)
);
#408 = UNCERTAINTY_MEASURE_WITH_UNIT(LENGTH_MEASURE(1.E-6), #407, 'DISTANCE_ACCURACY_VALUE', '');
#409 = (
   NAMED_UNIT (*)
   SI_UNIT ($, .STERADIAN.)
   SOLID_ANGLE_UNIT ()
);
#410 = (
   NAMED_UNIT (*)
   PLANE_ANGLE_UNIT ()
   SI_UNIT ($, .RADIAN.)
);
#411 = SHAPE_REPRESENTATION('', (), #406);
#412 = PRODUCT_DEFINITION_SHAPE('', '', #413);
#413 = PRODUCT_DEFINITION('', '', #416, #420);
#414 = APPLICATION_CONTEXT('configuration controlled 3D designs of mechanical parts and assemblies');
#415 = APPLICATION_PROTOCOL_DEFINITION('International Standard', 'automotive_design', 2002, #414);
#416 = PRODUCT_DEFINITION_FORMATION_WITH_SPECIFIED_SOURCE('', '', #417, .NOT_KNOWN.);
#417 = PRODUCT('NONE', '', '', (#418));
#418 = PRODUCT_CONTEXT('', #414, 'mechanical');
#419 = PRODUCT_RELATED_PRODUCT_CATEGORY('detail', '', (#417));
#420 = PRODUCT_DEFINITION_CONTEXT('part definition', #414, 'design');
#421 = SHAPE_DEFINITION_REPRESENTATION(#412, #411);
#422 = CONSTRUCTIVE_GEOMETRY_REPRESENTATION('supplemental geometry', (#4, #8, #12), #406);
#423 = CONSTRUCTIVE_GEOMETRY_REPRESENTATION_RELATIONSHIP('', '', #411, #422);
#424 = SHAPE_REPRESENTATION_RELATIONSHIP('', '', #411, #425);
#425 = SHAPE_REPRESENTATION('', (#3), #406);
#426 = SHAPE_REPRESENTATION_RELATIONSHIP('', '', #411, #427);
#427 = ADVANCED_BREP_SHAPE_REPRESENTATION('', (#65, #278), #406);
ENDSEC;
END-ISO-10303-21;
