ISO-10303-21;
HEADER;
/* Generated by software containing ST-Developer
 * from STEP Tools, Inc. (www.steptools.com) 
 */
/* OPTION: using custom schema-name function */

FILE_DESCRIPTION(
/* description */ (''),
/* implementation_level */ '2;1');

FILE_NAME(
/* name */ 'TOOL.STP',
/* time_stamp */ '2025-02-10T05:56:26+01:00',
/* author */ (''),
/* organization */ ('SMS'),
/* preprocessor_version */ 'ST-DEVELOPER v16.7',
/* originating_system */ 'SIEMENS PLM Software NX 12.0',
/* authorisation */ '');

FILE_SCHEMA (('AUTOMOTIVE_DESIGN { 1 0 10303 214 3 1 1 1 }'));
ENDSEC;

DATA;
#10=CONSTRUCTIVE_GEOMETRY_REPRESENTATION_RELATIONSHIP(
'supplemental geometry','',#26,#11);
#11=CONSTRUCTIVE_GEOMETRY_REPRESENTATION('supplemental geometry',(#231,
#232,#233),#439);
#12=GEOMETRICALLY_BOUNDED_WIREFRAME_SHAPE_REPRESENTATION('Tool-None',(#27),
#439);
#13=SHAPE_REPRESENTATION_RELATIONSHIP('None',
'relationship between Tool-None and Tool-None',#26,#15);
#14=SHAPE_REPRESENTATION_RELATIONSHIP('None',
'relationship between Tool-None and Tool-None',#26,#12);
#15=ADVANCED_BREP_SHAPE_REPRESENTATION('Tool-None',(#40,#41),#439);
#16=SHAPE_DEFINITION_REPRESENTATION(#17,#26);
#17=PRODUCT_DEFINITION_SHAPE('','',#18);
#18=PRODUCT_DEFINITION(' ','',#20,#19);
#19=PRODUCT_DEFINITION_CONTEXT('part definition',#25,'design');
#20=PRODUCT_DEFINITION_FORMATION_WITH_SPECIFIED_SOURCE(' ',' ',#22,
 .NOT_KNOWN.);
#21=PRODUCT_RELATED_PRODUCT_CATEGORY('part','',(#22));
#22=PRODUCT('Tool','Tool',' ',(#23));
#23=PRODUCT_CONTEXT(' ',#25,'mechanical');
#24=APPLICATION_PROTOCOL_DEFINITION('international standard',
'automotive_design',2010,#25);
#25=APPLICATION_CONTEXT(
'core data for automotive mechanical design processes');
#26=SHAPE_REPRESENTATION('Tool-None',(#230),#439);
#27=GEOMETRIC_CURVE_SET('None',(#321,#322,#323,#197));
#28=(
BOUNDED_SURFACE()
B_SPLINE_SURFACE(3,3,((#379,#380,#381,#382,#383,#384,#385),(#386,#387,#388,
#389,#390,#391,#392),(#393,#394,#395,#396,#397,#398,#399),(#400,#401,#402,
#403,#404,#405,#406)),.UNSPECIFIED.,.F.,.T.,.F.)
B_SPLINE_SURFACE_WITH_KNOTS((4,4),(1,3,3,3,1),(0.,1.),(-0.5,0.,0.5,1.,1.5),
 .UNSPECIFIED.)
GEOMETRIC_REPRESENTATION_ITEM()
RATIONAL_B_SPLINE_SURFACE(((1.,0.333333333333333,0.333333333333333,1.,0.333333333333333,
0.333333333333333,1.),(0.994478318586289,0.331492772862096,0.331492772862096,
0.994478318586289,0.331492772862096,0.331492772862096,0.994478318586289),
(0.994478318586289,0.331492772862096,0.331492772862096,0.994478318586289,
0.331492772862096,0.331492772862096,0.994478318586289),(1.,0.333333333333333,
0.333333333333333,1.,0.333333333333333,0.333333333333333,1.)))
REPRESENTATION_ITEM('')
SURFACE()
);
#29=(
BOUNDED_SURFACE()
B_SPLINE_SURFACE(3,3,((#409,#410,#411,#412,#413,#414,#415),(#416,#417,#418,
#419,#420,#421,#422),(#423,#424,#425,#426,#427,#428,#429),(#430,#431,#432,
#433,#434,#435,#436)),.UNSPECIFIED.,.F.,.T.,.F.)
B_SPLINE_SURFACE_WITH_KNOTS((4,4),(1,3,3,3,1),(0.,1.),(-0.5,0.,0.5,1.,1.5),
 .UNSPECIFIED.)
GEOMETRIC_REPRESENTATION_ITEM()
RATIONAL_B_SPLINE_SURFACE(((1.,0.333333333333333,0.333333333333333,1.,0.333333333333333,
0.333333333333333,1.),(0.831282180343327,0.277094060114442,0.277094060114442,
0.831282180343327,0.277094060114442,0.277094060114442,0.831282180343327),
(0.831282180343327,0.277094060114442,0.277094060114442,0.831282180343327,
0.277094060114442,0.277094060114442,0.831282180343327),(1.,0.333333333333333,
0.333333333333333,1.,0.333333333333333,0.333333333333333,1.)))
REPRESENTATION_ITEM('')
SURFACE()
);
#30=SURFACE_STYLE_USAGE(.BOTH.,#32);
#31=SURFACE_STYLE_USAGE(.BOTH.,#33);
#32=SURFACE_SIDE_STYLE('',(#34));
#33=SURFACE_SIDE_STYLE('',(#35));
#34=SURFACE_STYLE_FILL_AREA(#36);
#35=SURFACE_STYLE_FILL_AREA(#37);
#36=FILL_AREA_STYLE('',(#38));
#37=FILL_AREA_STYLE('',(#39));
#38=FILL_AREA_STYLE_COLOUR('',#228);
#39=FILL_AREA_STYLE_COLOUR('',#229);
#40=MANIFOLD_SOLID_BREP('NOCUT',#42);
#41=MANIFOLD_SOLID_BREP('CUT',#43);
#42=CLOSED_SHELL('',(#58,#59,#60,#61,#62,#63,#64,#65,#66,#67,#68));
#43=CLOSED_SHELL('',(#69,#70,#71,#72));
#44=PLANE('',#242);
#45=PLANE('',#254);
#46=PLANE('',#256);
#47=PLANE('',#259);
#48=FACE_OUTER_BOUND('',#104,.T.);
#49=FACE_OUTER_BOUND('',#117,.T.);
#50=FACE_OUTER_BOUND('',#118,.T.);
#51=FACE_OUTER_BOUND('',#123,.T.);
#52=TOROIDAL_SURFACE('',#240,6.4,1.);
#53=TOROIDAL_SURFACE('',#247,12.9926935462721,7.70515354627208);
#54=TOROIDAL_SURFACE('',#251,5.94138976301482,0.653849763014813);
#55=CONICAL_SURFACE('',#239,5.4,4.13085623327641);
#56=CONICAL_SURFACE('',#245,7.2,45.0000000000001);
#57=CONICAL_SURFACE('',#253,5.4,28.1096144559846);
#58=ADVANCED_FACE('',(#76,#77),#73,.T.);
#59=ADVANCED_FACE('',(#78,#79),#55,.T.);
#60=ADVANCED_FACE('',(#80,#81),#52,.F.);
#61=ADVANCED_FACE('',(#48),#44,.F.);
#62=ADVANCED_FACE('',(#82,#83),#74,.T.);
#63=ADVANCED_FACE('',(#84,#85),#56,.T.);
#64=ADVANCED_FACE('',(#86,#87),#53,.F.);
#65=ADVANCED_FACE('',(#88,#89),#75,.T.);
#66=ADVANCED_FACE('',(#90,#91),#54,.F.);
#67=ADVANCED_FACE('',(#92,#93),#57,.T.);
#68=ADVANCED_FACE('',(#49),#45,.T.);
#69=ADVANCED_FACE('',(#50),#46,.T.);
#70=ADVANCED_FACE('',(#94,#95),#28,.T.);
#71=ADVANCED_FACE('',(#96,#97),#29,.T.);
#72=ADVANCED_FACE('',(#51),#47,.F.);
#73=CYLINDRICAL_SURFACE('',#236,5.4);
#74=CYLINDRICAL_SURFACE('',#244,8.);
#75=CYLINDRICAL_SURFACE('',#249,5.28754000000001);
#76=FACE_BOUND('',#98,.T.);
#77=FACE_BOUND('',#99,.T.);
#78=FACE_BOUND('',#100,.T.);
#79=FACE_BOUND('',#101,.T.);
#80=FACE_BOUND('',#102,.T.);
#81=FACE_BOUND('',#103,.T.);
#82=FACE_BOUND('',#105,.T.);
#83=FACE_BOUND('',#106,.T.);
#84=FACE_BOUND('',#107,.T.);
#85=FACE_BOUND('',#108,.T.);
#86=FACE_BOUND('',#109,.T.);
#87=FACE_BOUND('',#110,.T.);
#88=FACE_BOUND('',#111,.T.);
#89=FACE_BOUND('',#112,.T.);
#90=FACE_BOUND('',#113,.T.);
#91=FACE_BOUND('',#114,.T.);
#92=FACE_BOUND('',#115,.T.);
#93=FACE_BOUND('',#116,.T.);
#94=FACE_BOUND('',#119,.T.);
#95=FACE_BOUND('',#120,.T.);
#96=FACE_BOUND('',#121,.T.);
#97=FACE_BOUND('',#122,.T.);
#98=EDGE_LOOP('',(#124));
#99=EDGE_LOOP('',(#125));
#100=EDGE_LOOP('',(#126));
#101=EDGE_LOOP('',(#127));
#102=EDGE_LOOP('',(#128));
#103=EDGE_LOOP('',(#129));
#104=EDGE_LOOP('',(#130));
#105=EDGE_LOOP('',(#131));
#106=EDGE_LOOP('',(#132));
#107=EDGE_LOOP('',(#133));
#108=EDGE_LOOP('',(#134));
#109=EDGE_LOOP('',(#135));
#110=EDGE_LOOP('',(#136));
#111=EDGE_LOOP('',(#137));
#112=EDGE_LOOP('',(#138));
#113=EDGE_LOOP('',(#139));
#114=EDGE_LOOP('',(#140));
#115=EDGE_LOOP('',(#141));
#116=EDGE_LOOP('',(#142));
#117=EDGE_LOOP('',(#143));
#118=EDGE_LOOP('',(#144));
#119=EDGE_LOOP('',(#145));
#120=EDGE_LOOP('',(#146));
#121=EDGE_LOOP('',(#147));
#122=EDGE_LOOP('',(#148));
#123=EDGE_LOOP('',(#149));
#124=ORIENTED_EDGE('',*,*,#163,.T.);
#125=ORIENTED_EDGE('',*,*,#164,.T.);
#126=ORIENTED_EDGE('',*,*,#165,.T.);
#127=ORIENTED_EDGE('',*,*,#166,.F.);
#128=ORIENTED_EDGE('',*,*,#163,.F.);
#129=ORIENTED_EDGE('',*,*,#165,.F.);
#130=ORIENTED_EDGE('',*,*,#167,.T.);
#131=ORIENTED_EDGE('',*,*,#168,.T.);
#132=ORIENTED_EDGE('',*,*,#166,.T.);
#133=ORIENTED_EDGE('',*,*,#168,.F.);
#134=ORIENTED_EDGE('',*,*,#167,.F.);
#135=ORIENTED_EDGE('',*,*,#164,.F.);
#136=ORIENTED_EDGE('',*,*,#169,.F.);
#137=ORIENTED_EDGE('',*,*,#169,.T.);
#138=ORIENTED_EDGE('',*,*,#170,.F.);
#139=ORIENTED_EDGE('',*,*,#170,.T.);
#140=ORIENTED_EDGE('',*,*,#171,.F.);
#141=ORIENTED_EDGE('',*,*,#171,.T.);
#142=ORIENTED_EDGE('',*,*,#172,.F.);
#143=ORIENTED_EDGE('',*,*,#172,.T.);
#144=ORIENTED_EDGE('',*,*,#173,.F.);
#145=ORIENTED_EDGE('',*,*,#174,.F.);
#146=ORIENTED_EDGE('',*,*,#173,.T.);
#147=ORIENTED_EDGE('',*,*,#174,.T.);
#148=ORIENTED_EDGE('',*,*,#175,.T.);
#149=ORIENTED_EDGE('',*,*,#175,.F.);
#150=VERTEX_POINT('',#344);
#151=VERTEX_POINT('',#346);
#152=VERTEX_POINT('',#349);
#153=VERTEX_POINT('',#351);
#154=VERTEX_POINT('',#355);
#155=VERTEX_POINT('',#358);
#156=VERTEX_POINT('',#362);
#157=VERTEX_POINT('',#365);
#158=VERTEX_POINT('',#368);
#159=VERTEX_POINT('',#371);
#160=VERTEX_POINT('',#375);
#161=VERTEX_POINT('',#378);
#162=VERTEX_POINT('',#408);
#163=EDGE_CURVE('',#150,#150,#176,.T.);
#164=EDGE_CURVE('',#151,#151,#177,.T.);
#165=EDGE_CURVE('',#152,#152,#178,.T.);
#166=EDGE_CURVE('',#153,#153,#179,.T.);
#167=EDGE_CURVE('',#154,#154,#180,.T.);
#168=EDGE_CURVE('',#155,#155,#181,.T.);
#169=EDGE_CURVE('',#156,#156,#182,.T.);
#170=EDGE_CURVE('',#157,#157,#183,.T.);
#171=EDGE_CURVE('',#158,#158,#184,.T.);
#172=EDGE_CURVE('',#159,#159,#185,.T.);
#173=EDGE_CURVE('',#160,#160,#186,.T.);
#174=EDGE_CURVE('',#161,#161,#187,.T.);
#175=EDGE_CURVE('',#162,#162,#188,.T.);
#176=CIRCLE('',#234,5.4);
#177=CIRCLE('',#235,5.4);
#178=CIRCLE('',#237,5.40259786614882);
#179=CIRCLE('',#238,8.);
#180=CIRCLE('',#241,7.2);
#181=CIRCLE('',#243,8.);
#182=CIRCLE('',#246,5.28754);
#183=CIRCLE('',#248,5.28754000000001);
#184=CIRCLE('',#250,5.36466300758047);
#185=CIRCLE('',#252,5.4);
#186=CIRCLE('',#255,5.39999999999998);
#187=CIRCLE('',#257,5.59643177477279);
#188=CIRCLE('',#258,2.61661018603417);
#189=CURVE_STYLE('',#193,POSITIVE_LENGTH_MEASURE(0.18),#200);
#190=CURVE_STYLE('',#194,POSITIVE_LENGTH_MEASURE(0.13),#227);
#191=CURVE_STYLE('',#195,POSITIVE_LENGTH_MEASURE(0.18),#226);
#192=CURVE_STYLE('',#196,POSITIVE_LENGTH_MEASURE(0.18),#226);
#193=DRAUGHTING_PRE_DEFINED_CURVE_FONT('continuous');
#194=DRAUGHTING_PRE_DEFINED_CURVE_FONT('continuous');
#195=DRAUGHTING_PRE_DEFINED_CURVE_FONT('continuous');
#196=DRAUGHTING_PRE_DEFINED_CURVE_FONT('continuous');
#197=TRIMMED_CURVE('CUTTING PART LINE',#198,(PARAMETER_VALUE(0.)),(
PARAMETER_VALUE(1.)),.T.,.PARAMETER.);
#198=(
BOUNDED_CURVE()
B_SPLINE_CURVE(3,(#324,#325,#326,#327,#328,#329,#330,#331,#332,#333,#334,
#335,#336,#337,#338,#339),.UNSPECIFIED.,.T.,.F.)
B_SPLINE_CURVE_WITH_KNOTS((1,3,3,3,3,3,3,1),(-0.0950811831746458,0.,0.336715823559093,
0.454362463791904,0.847912261790623,0.904918816825354,1.,1.33671582355909),
 .UNSPECIFIED.)
CURVE()
GEOMETRIC_REPRESENTATION_ITEM()
RATIONAL_B_SPLINE_CURVE((0.502079241210803,0.499306919596399,0.499306919596399,
0.502079241210803,0.502079241210803,0.502079241210803,0.502079241210803,
0.502079241210803,0.502079241210803,0.502079241210803,0.502079241210803,
0.502079241210803,0.502079241210803,0.41736952633884,0.417369526338839,
0.502079241210803))
REPRESENTATION_ITEM('CUTTING PART LINE')
);
#199=DRAUGHTING_PRE_DEFINED_COLOUR('white');
#200=DRAUGHTING_PRE_DEFINED_COLOUR('blue');
#201=PRESENTATION_LAYER_ASSIGNMENT('1','Layer 1',(#321,#322,#323,#197,#231,
#232,#233,#40,#41));
#202=STYLED_ITEM('',(#211),#321);
#203=STYLED_ITEM('',(#212),#322);
#204=STYLED_ITEM('',(#213),#323);
#205=STYLED_ITEM('',(#214),#197);
#206=STYLED_ITEM('',(#215),#231);
#207=STYLED_ITEM('',(#216),#232);
#208=STYLED_ITEM('',(#217),#233);
#209=STYLED_ITEM('',(#218),#40);
#210=STYLED_ITEM('',(#219),#41);
#211=PRESENTATION_STYLE_ASSIGNMENT((#220));
#212=PRESENTATION_STYLE_ASSIGNMENT((#221));
#213=PRESENTATION_STYLE_ASSIGNMENT((#222));
#214=PRESENTATION_STYLE_ASSIGNMENT((#189));
#215=PRESENTATION_STYLE_ASSIGNMENT((#190));
#216=PRESENTATION_STYLE_ASSIGNMENT((#191));
#217=PRESENTATION_STYLE_ASSIGNMENT((#192));
#218=PRESENTATION_STYLE_ASSIGNMENT((#30));
#219=PRESENTATION_STYLE_ASSIGNMENT((#31));
#220=POINT_STYLE('',#223,POSITIVE_LENGTH_MEASURE(3.),#226);
#221=POINT_STYLE('',#224,POSITIVE_LENGTH_MEASURE(3.),#199);
#222=POINT_STYLE('',#225,POSITIVE_LENGTH_MEASURE(3.),#226);
#223=PRE_DEFINED_POINT_MARKER_SYMBOL('plus');
#224=PRE_DEFINED_POINT_MARKER_SYMBOL('plus');
#225=PRE_DEFINED_POINT_MARKER_SYMBOL('plus');
#226=COLOUR_RGB('Medium Maroon',0.6,0.4,0.4);
#227=COLOUR_RGB('Silver Gray',0.6,0.6,0.6);
#228=COLOUR_RGB('TLS_NOCUT',0.498023956664378,0.498023956664378,0.498023956664378);
#229=COLOUR_RGB('TLS_CUT',0.8,0.8,0.8);
#230=AXIS2_PLACEMENT_3D('',#320,#260,#261);
#231=AXIS2_PLACEMENT_3D('PCS',#340,#262,#263);
#232=AXIS2_PLACEMENT_3D('MCS',#341,#264,#265);
#233=AXIS2_PLACEMENT_3D('CIP',#342,#266,#267);
#234=AXIS2_PLACEMENT_3D('',#343,#268,#269);
#235=AXIS2_PLACEMENT_3D('',#345,#270,#271);
#236=AXIS2_PLACEMENT_3D('',#347,#272,#273);
#237=AXIS2_PLACEMENT_3D('',#348,#274,#275);
#238=AXIS2_PLACEMENT_3D('',#350,#276,#277);
#239=AXIS2_PLACEMENT_3D('',#352,#278,#279);
#240=AXIS2_PLACEMENT_3D('',#353,#280,#281);
#241=AXIS2_PLACEMENT_3D('',#354,#282,#283);
#242=AXIS2_PLACEMENT_3D('',#356,#284,#285);
#243=AXIS2_PLACEMENT_3D('',#357,#286,#287);
#244=AXIS2_PLACEMENT_3D('',#359,#288,#289);
#245=AXIS2_PLACEMENT_3D('',#360,#290,#291);
#246=AXIS2_PLACEMENT_3D('',#361,#292,#293);
#247=AXIS2_PLACEMENT_3D('',#363,#294,#295);
#248=AXIS2_PLACEMENT_3D('',#364,#296,#297);
#249=AXIS2_PLACEMENT_3D('',#366,#298,#299);
#250=AXIS2_PLACEMENT_3D('',#367,#300,#301);
#251=AXIS2_PLACEMENT_3D('',#369,#302,#303);
#252=AXIS2_PLACEMENT_3D('',#370,#304,#305);
#253=AXIS2_PLACEMENT_3D('',#372,#306,#307);
#254=AXIS2_PLACEMENT_3D('',#373,#308,#309);
#255=AXIS2_PLACEMENT_3D('',#374,#310,#311);
#256=AXIS2_PLACEMENT_3D('',#376,#312,#313);
#257=AXIS2_PLACEMENT_3D('',#377,#314,#315);
#258=AXIS2_PLACEMENT_3D('',#407,#316,#317);
#259=AXIS2_PLACEMENT_3D('',#437,#318,#319);
#260=DIRECTION('',(0.,0.,1.));
#261=DIRECTION('',(1.,0.,0.));
#262=DIRECTION('',(0.,0.,1.));
#263=DIRECTION('',(1.,0.,0.));
#264=DIRECTION('',(0.,0.,1.));
#265=DIRECTION('',(1.,0.,0.));
#266=DIRECTION('',(0.,0.,1.));
#267=DIRECTION('',(1.,0.,0.));
#268=DIRECTION('',(0.,0.,-1.));
#269=DIRECTION('',(1.,0.,0.));
#270=DIRECTION('',(0.,0.,1.));
#271=DIRECTION('',(-1.,0.,0.));
#272=DIRECTION('',(0.,0.,1.));
#273=DIRECTION('',(1.,0.,0.));
#274=DIRECTION('',(0.,0.,1.));
#275=DIRECTION('',(1.,0.,0.));
#276=DIRECTION('',(0.,0.,1.));
#277=DIRECTION('',(1.,0.,0.));
#278=DIRECTION('',(0.,0.,1.));
#279=DIRECTION('',(1.,0.,3.575725458641E-16));
#280=DIRECTION('',(0.,0.,1.));
#281=DIRECTION('',(1.,0.,0.));
#282=DIRECTION('',(0.,0.,1.));
#283=DIRECTION('',(-1.,0.,0.));
#284=DIRECTION('',(0.,0.,-1.));
#285=DIRECTION('',(-1.,0.,0.));
#286=DIRECTION('',(0.,0.,-1.));
#287=DIRECTION('',(-1.,0.,0.));
#288=DIRECTION('',(0.,0.,1.));
#289=DIRECTION('',(1.,0.,0.));
#290=DIRECTION('',(0.,0.,-1.));
#291=DIRECTION('',(-1.,0.,0.));
#292=DIRECTION('',(0.,0.,-1.));
#293=DIRECTION('',(-1.,0.,0.));
#294=DIRECTION('',(0.,0.,-1.));
#295=DIRECTION('',(-1.,0.,0.));
#296=DIRECTION('',(0.,0.,-1.));
#297=DIRECTION('',(-1.,0.,0.));
#298=DIRECTION('',(0.,0.,-1.));
#299=DIRECTION('',(-1.,0.,0.));
#300=DIRECTION('',(0.,0.,-1.));
#301=DIRECTION('',(-1.,0.,0.));
#302=DIRECTION('',(0.,0.,-1.));
#303=DIRECTION('',(-1.,0.,0.));
#304=DIRECTION('',(0.,0.,-1.));
#305=DIRECTION('',(-1.,0.,0.));
#306=DIRECTION('',(0.,0.,-1.));
#307=DIRECTION('',(-1.,0.,5.14405629852451E-17));
#308=DIRECTION('',(0.,0.,-1.));
#309=DIRECTION('',(-1.,0.,0.));
#310=DIRECTION('',(0.,0.,-1.));
#311=DIRECTION('',(1.,0.,0.));
#312=DIRECTION('',(0.,0.,1.));
#313=DIRECTION('',(1.,0.,0.));
#314=DIRECTION('',(0.,0.,-1.));
#315=DIRECTION('',(-1.,0.,0.));
#316=DIRECTION('',(0.,0.,1.));
#317=DIRECTION('',(-1.,0.,0.));
#318=DIRECTION('',(0.,0.,1.));
#319=DIRECTION('',(1.,0.,0.));
#320=CARTESIAN_POINT('',(0.,0.,0.));
#321=CARTESIAN_POINT('',(0.,0.,-48.));
#322=CARTESIAN_POINT('CRP',(-6.,0.,-120.));
#323=CARTESIAN_POINT('CIP_DCSYS',(0.,0.,-120.));
#324=CARTESIAN_POINT('',(-5.59643177477275,0.,-117.347366232221));
#325=CARTESIAN_POINT('',(-6.19460391903628,0.,-112.216049184324));
#326=CARTESIAN_POINT('',(-6.12876310880055,0.,-107.050404060246));
#327=CARTESIAN_POINT('',(-5.39999999999999,0.,-101.936));
#328=CARTESIAN_POINT('',(-3.59999999999999,0.,-101.936));
#329=CARTESIAN_POINT('',(-1.8,0.,-101.936));
#330=CARTESIAN_POINT('',(0.,0.,-101.936));
#331=CARTESIAN_POINT('',(0.,0.,-107.957333333333));
#332=CARTESIAN_POINT('',(0.,0.,-113.978666666667));
#333=CARTESIAN_POINT('',(0.,0.,-120.));
#334=CARTESIAN_POINT('',(-0.872203395344722,0.,-120.));
#335=CARTESIAN_POINT('',(-1.74440679068944,0.,-120.));
#336=CARTESIAN_POINT('',(-2.61661018603416,0.,-120.));
#337=CARTESIAN_POINT('',(-4.21633229304849,0.,-120.));
#338=CARTESIAN_POINT('',(-5.41120196113478,0.,-118.936328389042));
#339=CARTESIAN_POINT('',(-5.59643177477277,0.,-117.347366232221));
#340=CARTESIAN_POINT('',(0.,0.,0.));
#341=CARTESIAN_POINT('',(0.,0.,-48.));
#342=CARTESIAN_POINT('',(0.,0.,-120.));
#343=CARTESIAN_POINT('',(0.,0.,-83.9988492231671));
#344=CARTESIAN_POINT('',(5.4,0.,-83.9988492231671));
#345=CARTESIAN_POINT('',(0.,0.,-99.75014));
#346=CARTESIAN_POINT('',(-5.4,0.,-99.75014));
#347=CARTESIAN_POINT('',(0.,0.,0.));
#348=CARTESIAN_POINT('',(0.,0.,-83.9268146246112));
#349=CARTESIAN_POINT('',(5.40259786614882,0.,-83.9268146246112));
#350=CARTESIAN_POINT('',(0.,0.,-47.9627850789795));
#351=CARTESIAN_POINT('',(8.,0.,-47.9627850789795));
#352=CARTESIAN_POINT('',(0.,0.,-83.9627850789795));
#353=CARTESIAN_POINT('',(0.,0.,-83.9988492231671));
#354=CARTESIAN_POINT('',(0.,0.,0.));
#355=CARTESIAN_POINT('',(-7.2,0.,0.));
#356=CARTESIAN_POINT('',(0.,8.,0.));
#357=CARTESIAN_POINT('',(0.,0.,-0.799999999999999));
#358=CARTESIAN_POINT('',(-8.,0.,-0.799999999999999));
#359=CARTESIAN_POINT('',(0.,0.,20.9080749503476));
#360=CARTESIAN_POINT('',(0.,0.,0.));
#361=CARTESIAN_POINT('',(0.,0.,-101.061778625547));
#362=CARTESIAN_POINT('',(-5.28754,0.,-101.061778625547));
#363=CARTESIAN_POINT('',(0.,0.,-101.061778625547));
#364=CARTESIAN_POINT('',(0.,0.,-101.561778625547));
#365=CARTESIAN_POINT('',(-5.28754000000001,0.,-101.561778625547));
#366=CARTESIAN_POINT('',(0.,0.,-119.932510028364));
#367=CARTESIAN_POINT('',(0.,0.,-101.869846413803));
#368=CARTESIAN_POINT('',(-5.36466300758047,0.,-101.869846413803));
#369=CARTESIAN_POINT('',(0.,0.,-101.561778625547));
#370=CARTESIAN_POINT('',(0.,0.,-101.936));
#371=CARTESIAN_POINT('',(-5.4,0.,-101.936));
#372=CARTESIAN_POINT('',(0.,0.,-101.936));
#373=CARTESIAN_POINT('',(0.,0.,-101.936));
#374=CARTESIAN_POINT('',(0.,0.,-101.936));
#375=CARTESIAN_POINT('',(5.39999999999998,0.,-101.936));
#376=CARTESIAN_POINT('',(0.,0.,-101.936));
#377=CARTESIAN_POINT('',(0.,0.,-117.347366232221));
#378=CARTESIAN_POINT('',(-5.59643177477279,0.,-117.347366232221));
#379=CARTESIAN_POINT('',(-5.59643177477277,0.,-117.347366232221));
#380=CARTESIAN_POINT('',(-5.59643177477277,11.1928635495455,-117.347366232221));
#381=CARTESIAN_POINT('',(5.59643177477277,11.1928635495455,-117.347366232221));
#382=CARTESIAN_POINT('',(5.59643177477277,0.,-117.347366232221));
#383=CARTESIAN_POINT('',(5.59643177477277,-11.1928635495455,-117.347366232221));
#384=CARTESIAN_POINT('',(-5.59643177477277,-11.1928635495455,-117.347366232221));
#385=CARTESIAN_POINT('',(-5.59643177477277,0.,-117.347366232221));
#386=CARTESIAN_POINT('',(-6.19460391903628,0.,-112.216049184324));
#387=CARTESIAN_POINT('',(-6.19460391903628,12.3892078380726,-112.216049184324));
#388=CARTESIAN_POINT('',(6.19460391903628,12.3892078380726,-112.216049184324));
#389=CARTESIAN_POINT('',(6.19460391903628,0.,-112.216049184324));
#390=CARTESIAN_POINT('',(6.19460391903628,-12.3892078380726,-112.216049184324));
#391=CARTESIAN_POINT('',(-6.19460391903628,-12.3892078380726,-112.216049184324));
#392=CARTESIAN_POINT('',(-6.19460391903628,0.,-112.216049184324));
#393=CARTESIAN_POINT('',(-6.12876310880055,0.,-107.050404060246));
#394=CARTESIAN_POINT('',(-6.12876310880055,12.2575262176011,-107.050404060246));
#395=CARTESIAN_POINT('',(6.12876310880055,12.2575262176011,-107.050404060246));
#396=CARTESIAN_POINT('',(6.12876310880055,0.,-107.050404060246));
#397=CARTESIAN_POINT('',(6.12876310880055,-12.2575262176011,-107.050404060246));
#398=CARTESIAN_POINT('',(-6.12876310880055,-12.2575262176011,-107.050404060246));
#399=CARTESIAN_POINT('',(-6.12876310880055,0.,-107.050404060246));
#400=CARTESIAN_POINT('',(-5.4,0.,-101.936));
#401=CARTESIAN_POINT('',(-5.4,10.8,-101.936));
#402=CARTESIAN_POINT('',(5.4,10.8,-101.936));
#403=CARTESIAN_POINT('',(5.4,0.,-101.936));
#404=CARTESIAN_POINT('',(5.4,-10.8,-101.936));
#405=CARTESIAN_POINT('',(-5.4,-10.8,-101.936));
#406=CARTESIAN_POINT('',(-5.4,0.,-101.936));
#407=CARTESIAN_POINT('',(0.,0.,-120.));
#408=CARTESIAN_POINT('',(-2.61661018603417,0.,-120.));
#409=CARTESIAN_POINT('',(-2.61661018603417,0.,-120.));
#410=CARTESIAN_POINT('',(-2.61661018603417,5.23322037206833,-120.));
#411=CARTESIAN_POINT('',(2.61661018603417,5.23322037206833,-120.));
#412=CARTESIAN_POINT('',(2.61661018603417,0.,-120.));
#413=CARTESIAN_POINT('',(2.61661018603417,-5.23322037206833,-120.));
#414=CARTESIAN_POINT('',(-2.61661018603417,-5.23322037206833,-120.));
#415=CARTESIAN_POINT('',(-2.61661018603417,0.,-120.));
#416=CARTESIAN_POINT('',(-4.21633229304851,0.,-120.));
#417=CARTESIAN_POINT('',(-4.21633229304851,8.43266458609702,-120.));
#418=CARTESIAN_POINT('',(4.21633229304851,8.43266458609702,-120.));
#419=CARTESIAN_POINT('',(4.21633229304851,0.,-120.));
#420=CARTESIAN_POINT('',(4.21633229304851,-8.43266458609702,-120.));
#421=CARTESIAN_POINT('',(-4.21633229304851,-8.43266458609702,-120.));
#422=CARTESIAN_POINT('',(-4.21633229304851,0.,-120.));
#423=CARTESIAN_POINT('',(-5.4112019611348,0.,-118.936328389042));
#424=CARTESIAN_POINT('',(-5.4112019611348,10.8224039222696,-118.936328389042));
#425=CARTESIAN_POINT('',(5.4112019611348,10.8224039222696,-118.936328389042));
#426=CARTESIAN_POINT('',(5.4112019611348,0.,-118.936328389042));
#427=CARTESIAN_POINT('',(5.4112019611348,-10.8224039222696,-118.936328389042));
#428=CARTESIAN_POINT('',(-5.4112019611348,-10.8224039222696,-118.936328389042));
#429=CARTESIAN_POINT('',(-5.4112019611348,0.,-118.936328389042));
#430=CARTESIAN_POINT('',(-5.59643177477279,0.,-117.347366232221));
#431=CARTESIAN_POINT('',(-5.59643177477279,11.1928635495456,-117.347366232221));
#432=CARTESIAN_POINT('',(5.59643177477279,11.1928635495456,-117.347366232221));
#433=CARTESIAN_POINT('',(5.59643177477279,0.,-117.347366232221));
#434=CARTESIAN_POINT('',(5.59643177477279,-11.1928635495456,-117.347366232221));
#435=CARTESIAN_POINT('',(-5.59643177477279,-11.1928635495456,-117.347366232221));
#436=CARTESIAN_POINT('',(-5.59643177477279,0.,-117.347366232221));
#437=CARTESIAN_POINT('',(0.,0.,-120.));
#438=MECHANICAL_DESIGN_GEOMETRIC_PRESENTATION_REPRESENTATION('',(#202,#203,
#204,#205,#206,#207,#208,#209,#210),#439);
#439=(
GEOMETRIC_REPRESENTATION_CONTEXT(3)
GLOBAL_UNCERTAINTY_ASSIGNED_CONTEXT((#440))
GLOBAL_UNIT_ASSIGNED_CONTEXT((#446,#442,#441))
REPRESENTATION_CONTEXT('TOOL','TOP_LEVEL_ASSEMBLY_PART')
);
#440=UNCERTAINTY_MEASURE_WITH_UNIT(LENGTH_MEASURE(0.0254),#446,
'DISTANCE_ACCURACY_VALUE','Maximum Tolerance applied to model');
#441=(
NAMED_UNIT(*)
SI_UNIT($,.STERADIAN.)
SOLID_ANGLE_UNIT()
);
#442=(
CONVERSION_BASED_UNIT('DEGREE',#444)
NAMED_UNIT(#443)
PLANE_ANGLE_UNIT()
);
#443=DIMENSIONAL_EXPONENTS(0.,0.,0.,0.,0.,0.,0.);
#444=PLANE_ANGLE_MEASURE_WITH_UNIT(PLANE_ANGLE_MEASURE(0.0174532925),#445);
#445=(
NAMED_UNIT(*)
PLANE_ANGLE_UNIT()
SI_UNIT($,.RADIAN.)
);
#446=(
LENGTH_UNIT()
NAMED_UNIT(*)
SI_UNIT(.MILLI.,.METRE.)
);
ENDSEC;
END-ISO-10303-21;
