ISO-10303-21;
HEADER;
/* Generated by software containing ST-Developer
 * from STEP Tools, Inc. (www.steptools.com) 
 */
/* OPTION: using custom schema-name function */

FILE_DESCRIPTION(
/* description */ (''),
/* implementation_level */ '2;1');

FILE_NAME(
/* name */ 'TOOL.STP',
/* time_stamp */ '2025-02-10T05:48:55+01:00',
/* author */ (''),
/* organization */ ('SMS'),
/* preprocessor_version */ 'ST-DEVELOPER v16.7',
/* originating_system */ 'SIEMENS PLM Software NX 12.0',
/* authorisation */ '');

FILE_SCHEMA (('AUTOMOTIVE_DESIGN { 1 0 10303 214 3 1 1 1 }'));
ENDSEC;

DATA;
#10=CONSTRUCTIVE_GEOMETRY_REPRESENTATION_RELATIONSHIP(
'supplemental geometry','',#26,#11);
#11=CONSTRUCTIVE_GEOMETRY_REPRESENTATION('supplemental geometry',(#231,
#232,#233),#415);
#12=GEOMETRICALLY_BOUNDED_WIREFRAME_SHAPE_REPRESENTATION('Tool-None',(#27),
#415);
#13=SHAPE_REPRESENTATION_RELATIONSHIP('None',
'relationship between Tool-None and Tool-None',#26,#15);
#14=SHAPE_REPRESENTATION_RELATIONSHIP('None',
'relationship between Tool-None and Tool-None',#26,#12);
#15=ADVANCED_BREP_SHAPE_REPRESENTATION('Tool-None',(#39,#40),#415);
#16=SHAPE_DEFINITION_REPRESENTATION(#17,#26);
#17=PRODUCT_DEFINITION_SHAPE('','',#18);
#18=PRODUCT_DEFINITION(' ','',#20,#19);
#19=PRODUCT_DEFINITION_CONTEXT('part definition',#25,'design');
#20=PRODUCT_DEFINITION_FORMATION_WITH_SPECIFIED_SOURCE(' ',' ',#22,
 .NOT_KNOWN.);
#21=PRODUCT_RELATED_PRODUCT_CATEGORY('part','',(#22));
#22=PRODUCT('Tool','Tool',' ',(#23));
#23=PRODUCT_CONTEXT(' ',#25,'mechanical');
#24=APPLICATION_PROTOCOL_DEFINITION('international standard',
'automotive_design',2010,#25);
#25=APPLICATION_CONTEXT(
'core data for automotive mechanical design processes');
#26=SHAPE_REPRESENTATION('Tool-None',(#230),#415);
#27=GEOMETRIC_CURVE_SET('None',(#324,#325,#326,#197));
#28=(
BOUNDED_SURFACE()
B_SPLINE_SURFACE(3,3,((#382,#383,#384,#385,#386,#387,#388),(#389,#390,#391,
#392,#393,#394,#395),(#396,#397,#398,#399,#400,#401,#402),(#403,#404,#405,
#406,#407,#408,#409)),.UNSPECIFIED.,.F.,.T.,.F.)
B_SPLINE_SURFACE_WITH_KNOTS((4,4),(1,3,3,3,1),(0.,1.),(-0.5,0.,0.5,1.,1.5),
 .UNSPECIFIED.)
GEOMETRIC_REPRESENTATION_ITEM()
RATIONAL_B_SPLINE_SURFACE(((1.,0.333333333333333,0.333333333333333,1.,0.333333333333333,
0.333333333333333,1.),(0.986249263485634,0.328749754495211,0.328749754495211,
0.986249263485634,0.328749754495211,0.328749754495211,0.986249263485634),
(0.986249263485634,0.328749754495211,0.328749754495211,0.986249263485634,
0.328749754495211,0.328749754495211,0.986249263485634),(1.,0.333333333333333,
0.333333333333333,1.,0.333333333333333,0.333333333333333,1.)))
REPRESENTATION_ITEM('')
SURFACE()
);
#29=SURFACE_STYLE_USAGE(.BOTH.,#31);
#30=SURFACE_STYLE_USAGE(.BOTH.,#32);
#31=SURFACE_SIDE_STYLE('',(#33));
#32=SURFACE_SIDE_STYLE('',(#34));
#33=SURFACE_STYLE_FILL_AREA(#35);
#34=SURFACE_STYLE_FILL_AREA(#36);
#35=FILL_AREA_STYLE('',(#37));
#36=FILL_AREA_STYLE('',(#38));
#37=FILL_AREA_STYLE_COLOUR('',#228);
#38=FILL_AREA_STYLE_COLOUR('',#229);
#39=MANIFOLD_SOLID_BREP('NOCUT',#41);
#40=MANIFOLD_SOLID_BREP('CUT',#42);
#41=CLOSED_SHELL('',(#58,#59,#60,#61,#62,#63,#64,#65,#66,#67,#68));
#42=CLOSED_SHELL('',(#69,#70,#71,#72));
#43=PLANE('',#242);
#44=PLANE('',#254);
#45=PLANE('',#256);
#46=PLANE('',#260);
#47=FACE_OUTER_BOUND('',#104,.T.);
#48=FACE_OUTER_BOUND('',#117,.T.);
#49=FACE_OUTER_BOUND('',#118,.T.);
#50=FACE_OUTER_BOUND('',#123,.T.);
#51=TOROIDAL_SURFACE('',#240,3.7,1.);
#52=TOROIDAL_SURFACE('',#247,5.36214581705278,2.74382581705278);
#53=TOROIDAL_SURFACE('',#251,2.8749527310957,0.256632731095698);
#54=TOROIDAL_SURFACE('',#259,1.81664612063653,1.);
#55=CONICAL_SURFACE('',#239,2.7,2.8624052261117);
#56=CONICAL_SURFACE('',#245,2.6,45.);
#57=CONICAL_SURFACE('',#253,2.7,32.8385681410049);
#58=ADVANCED_FACE('',(#76,#77),#73,.T.);
#59=ADVANCED_FACE('',(#78,#79),#55,.T.);
#60=ADVANCED_FACE('',(#80,#81),#51,.F.);
#61=ADVANCED_FACE('',(#47),#43,.F.);
#62=ADVANCED_FACE('',(#82,#83),#74,.T.);
#63=ADVANCED_FACE('',(#84,#85),#56,.T.);
#64=ADVANCED_FACE('',(#86,#87),#52,.F.);
#65=ADVANCED_FACE('',(#88,#89),#75,.T.);
#66=ADVANCED_FACE('',(#90,#91),#53,.F.);
#67=ADVANCED_FACE('',(#92,#93),#57,.T.);
#68=ADVANCED_FACE('',(#48),#44,.T.);
#69=ADVANCED_FACE('',(#49),#45,.T.);
#70=ADVANCED_FACE('',(#94,#95),#28,.T.);
#71=ADVANCED_FACE('',(#96,#97),#54,.T.);
#72=ADVANCED_FACE('',(#50),#46,.F.);
#73=CYLINDRICAL_SURFACE('',#236,2.7);
#74=CYLINDRICAL_SURFACE('',#244,3.);
#75=CYLINDRICAL_SURFACE('',#249,2.61832);
#76=FACE_BOUND('',#98,.T.);
#77=FACE_BOUND('',#99,.T.);
#78=FACE_BOUND('',#100,.T.);
#79=FACE_BOUND('',#101,.T.);
#80=FACE_BOUND('',#102,.T.);
#81=FACE_BOUND('',#103,.T.);
#82=FACE_BOUND('',#105,.T.);
#83=FACE_BOUND('',#106,.T.);
#84=FACE_BOUND('',#107,.T.);
#85=FACE_BOUND('',#108,.T.);
#86=FACE_BOUND('',#109,.T.);
#87=FACE_BOUND('',#110,.T.);
#88=FACE_BOUND('',#111,.T.);
#89=FACE_BOUND('',#112,.T.);
#90=FACE_BOUND('',#113,.T.);
#91=FACE_BOUND('',#114,.T.);
#92=FACE_BOUND('',#115,.T.);
#93=FACE_BOUND('',#116,.T.);
#94=FACE_BOUND('',#119,.T.);
#95=FACE_BOUND('',#120,.T.);
#96=FACE_BOUND('',#121,.T.);
#97=FACE_BOUND('',#122,.T.);
#98=EDGE_LOOP('',(#124));
#99=EDGE_LOOP('',(#125));
#100=EDGE_LOOP('',(#126));
#101=EDGE_LOOP('',(#127));
#102=EDGE_LOOP('',(#128));
#103=EDGE_LOOP('',(#129));
#104=EDGE_LOOP('',(#130));
#105=EDGE_LOOP('',(#131));
#106=EDGE_LOOP('',(#132));
#107=EDGE_LOOP('',(#133));
#108=EDGE_LOOP('',(#134));
#109=EDGE_LOOP('',(#135));
#110=EDGE_LOOP('',(#136));
#111=EDGE_LOOP('',(#137));
#112=EDGE_LOOP('',(#138));
#113=EDGE_LOOP('',(#139));
#114=EDGE_LOOP('',(#140));
#115=EDGE_LOOP('',(#141));
#116=EDGE_LOOP('',(#142));
#117=EDGE_LOOP('',(#143));
#118=EDGE_LOOP('',(#144));
#119=EDGE_LOOP('',(#145));
#120=EDGE_LOOP('',(#146));
#121=EDGE_LOOP('',(#147));
#122=EDGE_LOOP('',(#148));
#123=EDGE_LOOP('',(#149));
#124=ORIENTED_EDGE('',*,*,#163,.T.);
#125=ORIENTED_EDGE('',*,*,#164,.T.);
#126=ORIENTED_EDGE('',*,*,#165,.T.);
#127=ORIENTED_EDGE('',*,*,#166,.F.);
#128=ORIENTED_EDGE('',*,*,#163,.F.);
#129=ORIENTED_EDGE('',*,*,#165,.F.);
#130=ORIENTED_EDGE('',*,*,#167,.T.);
#131=ORIENTED_EDGE('',*,*,#168,.T.);
#132=ORIENTED_EDGE('',*,*,#166,.T.);
#133=ORIENTED_EDGE('',*,*,#168,.F.);
#134=ORIENTED_EDGE('',*,*,#167,.F.);
#135=ORIENTED_EDGE('',*,*,#164,.F.);
#136=ORIENTED_EDGE('',*,*,#169,.F.);
#137=ORIENTED_EDGE('',*,*,#169,.T.);
#138=ORIENTED_EDGE('',*,*,#170,.F.);
#139=ORIENTED_EDGE('',*,*,#170,.T.);
#140=ORIENTED_EDGE('',*,*,#171,.F.);
#141=ORIENTED_EDGE('',*,*,#171,.T.);
#142=ORIENTED_EDGE('',*,*,#172,.F.);
#143=ORIENTED_EDGE('',*,*,#172,.T.);
#144=ORIENTED_EDGE('',*,*,#173,.F.);
#145=ORIENTED_EDGE('',*,*,#174,.F.);
#146=ORIENTED_EDGE('',*,*,#173,.T.);
#147=ORIENTED_EDGE('',*,*,#174,.T.);
#148=ORIENTED_EDGE('',*,*,#175,.T.);
#149=ORIENTED_EDGE('',*,*,#175,.F.);
#150=VERTEX_POINT('',#347);
#151=VERTEX_POINT('',#349);
#152=VERTEX_POINT('',#352);
#153=VERTEX_POINT('',#354);
#154=VERTEX_POINT('',#358);
#155=VERTEX_POINT('',#361);
#156=VERTEX_POINT('',#365);
#157=VERTEX_POINT('',#368);
#158=VERTEX_POINT('',#371);
#159=VERTEX_POINT('',#374);
#160=VERTEX_POINT('',#378);
#161=VERTEX_POINT('',#381);
#162=VERTEX_POINT('',#411);
#163=EDGE_CURVE('',#150,#150,#176,.T.);
#164=EDGE_CURVE('',#151,#151,#177,.T.);
#165=EDGE_CURVE('',#152,#152,#178,.T.);
#166=EDGE_CURVE('',#153,#153,#179,.T.);
#167=EDGE_CURVE('',#154,#154,#180,.T.);
#168=EDGE_CURVE('',#155,#155,#181,.T.);
#169=EDGE_CURVE('',#156,#156,#182,.T.);
#170=EDGE_CURVE('',#157,#157,#183,.T.);
#171=EDGE_CURVE('',#158,#158,#184,.T.);
#172=EDGE_CURVE('',#159,#159,#185,.T.);
#173=EDGE_CURVE('',#160,#160,#186,.T.);
#174=EDGE_CURVE('',#161,#161,#187,.T.);
#175=EDGE_CURVE('',#162,#162,#188,.T.);
#176=CIRCLE('',#234,2.7);
#177=CIRCLE('',#235,2.7);
#178=CIRCLE('',#237,2.70124766112215);
#179=CIRCLE('',#238,3.);
#180=CIRCLE('',#241,2.6);
#181=CIRCLE('',#243,3.);
#182=CIRCLE('',#246,2.61832);
#183=CIRCLE('',#248,2.61832);
#184=CIRCLE('',#250,2.65932945694542);
#185=CIRCLE('',#252,2.7);
#186=CIRCLE('',#255,2.7);
#187=CIRCLE('',#257,2.79997758614885);
#188=CIRCLE('',#258,1.81664612063653);
#189=CURVE_STYLE('',#193,POSITIVE_LENGTH_MEASURE(0.18),#200);
#190=CURVE_STYLE('',#194,POSITIVE_LENGTH_MEASURE(0.13),#227);
#191=CURVE_STYLE('',#195,POSITIVE_LENGTH_MEASURE(0.18),#226);
#192=CURVE_STYLE('',#196,POSITIVE_LENGTH_MEASURE(0.18),#226);
#193=DRAUGHTING_PRE_DEFINED_CURVE_FONT('continuous');
#194=DRAUGHTING_PRE_DEFINED_CURVE_FONT('continuous');
#195=DRAUGHTING_PRE_DEFINED_CURVE_FONT('continuous');
#196=DRAUGHTING_PRE_DEFINED_CURVE_FONT('continuous');
#197=TRIMMED_CURVE('CUTTING PART LINE',#198,(PARAMETER_VALUE(0.)),(
PARAMETER_VALUE(1.)),.T.,.PARAMETER.);
#198=(
BOUNDED_CURVE()
B_SPLINE_CURVE(3,(#327,#328,#329,#330,#331,#332,#333,#334,#335,#336,#337,
#338,#339,#340,#341,#342),.UNSPECIFIED.,.T.,.F.)
B_SPLINE_CURVE_WITH_KNOTS((1,3,3,3,3,3,3,1),(-0.0843534113735378,0.,0.29676365113684,
0.460856742938065,0.805239522460167,0.915646588626462,1.,1.29676365113684),
 .UNSPECIFIED.)
CURVE()
GEOMETRIC_REPRESENTATION_ITEM()
RATIONAL_B_SPLINE_CURVE((0.505210259875931,0.498263246708023,0.498263246708023,
0.505210259875931,0.505210259875931,0.505210259875931,0.505210259875931,
0.505210259875931,0.505210259875931,0.505210259875931,0.505210259875931,
0.505210259875931,0.505210259875931,0.42730931229804,0.42730931229804,0.505210259875931))
REPRESENTATION_ITEM('CUTTING PART LINE')
);
#199=DRAUGHTING_PRE_DEFINED_COLOUR('white');
#200=DRAUGHTING_PRE_DEFINED_COLOUR('blue');
#201=PRESENTATION_LAYER_ASSIGNMENT('1','Layer 1',(#324,#325,#326,#197,#231,
#232,#233,#39,#40));
#202=STYLED_ITEM('',(#211),#324);
#203=STYLED_ITEM('',(#212),#325);
#204=STYLED_ITEM('',(#213),#326);
#205=STYLED_ITEM('',(#214),#197);
#206=STYLED_ITEM('',(#215),#231);
#207=STYLED_ITEM('',(#216),#232);
#208=STYLED_ITEM('',(#217),#233);
#209=STYLED_ITEM('',(#218),#39);
#210=STYLED_ITEM('',(#219),#40);
#211=PRESENTATION_STYLE_ASSIGNMENT((#220));
#212=PRESENTATION_STYLE_ASSIGNMENT((#221));
#213=PRESENTATION_STYLE_ASSIGNMENT((#222));
#214=PRESENTATION_STYLE_ASSIGNMENT((#189));
#215=PRESENTATION_STYLE_ASSIGNMENT((#190));
#216=PRESENTATION_STYLE_ASSIGNMENT((#191));
#217=PRESENTATION_STYLE_ASSIGNMENT((#192));
#218=PRESENTATION_STYLE_ASSIGNMENT((#29));
#219=PRESENTATION_STYLE_ASSIGNMENT((#30));
#220=POINT_STYLE('',#223,POSITIVE_LENGTH_MEASURE(3.),#226);
#221=POINT_STYLE('',#224,POSITIVE_LENGTH_MEASURE(3.),#199);
#222=POINT_STYLE('',#225,POSITIVE_LENGTH_MEASURE(3.),#226);
#223=PRE_DEFINED_POINT_MARKER_SYMBOL('plus');
#224=PRE_DEFINED_POINT_MARKER_SYMBOL('plus');
#225=PRE_DEFINED_POINT_MARKER_SYMBOL('plus');
#226=COLOUR_RGB('Medium Maroon',0.6,0.4,0.4);
#227=COLOUR_RGB('Silver Gray',0.6,0.6,0.6);
#228=COLOUR_RGB('TLS_NOCUT',0.498023956664378,0.498023956664378,0.498023956664378);
#229=COLOUR_RGB('TLS_CUT',0.8,0.8,0.8);
#230=AXIS2_PLACEMENT_3D('',#323,#261,#262);
#231=AXIS2_PLACEMENT_3D('PCS',#343,#263,#264);
#232=AXIS2_PLACEMENT_3D('MCS',#344,#265,#266);
#233=AXIS2_PLACEMENT_3D('CIP',#345,#267,#268);
#234=AXIS2_PLACEMENT_3D('',#346,#269,#270);
#235=AXIS2_PLACEMENT_3D('',#348,#271,#272);
#236=AXIS2_PLACEMENT_3D('',#350,#273,#274);
#237=AXIS2_PLACEMENT_3D('',#351,#275,#276);
#238=AXIS2_PLACEMENT_3D('',#353,#277,#278);
#239=AXIS2_PLACEMENT_3D('',#355,#279,#280);
#240=AXIS2_PLACEMENT_3D('',#356,#281,#282);
#241=AXIS2_PLACEMENT_3D('',#357,#283,#284);
#242=AXIS2_PLACEMENT_3D('',#359,#285,#286);
#243=AXIS2_PLACEMENT_3D('',#360,#287,#288);
#244=AXIS2_PLACEMENT_3D('',#362,#289,#290);
#245=AXIS2_PLACEMENT_3D('',#363,#291,#292);
#246=AXIS2_PLACEMENT_3D('',#364,#293,#294);
#247=AXIS2_PLACEMENT_3D('',#366,#295,#296);
#248=AXIS2_PLACEMENT_3D('',#367,#297,#298);
#249=AXIS2_PLACEMENT_3D('',#369,#299,#300);
#250=AXIS2_PLACEMENT_3D('',#370,#301,#302);
#251=AXIS2_PLACEMENT_3D('',#372,#303,#304);
#252=AXIS2_PLACEMENT_3D('',#373,#305,#306);
#253=AXIS2_PLACEMENT_3D('',#375,#307,#308);
#254=AXIS2_PLACEMENT_3D('',#376,#309,#310);
#255=AXIS2_PLACEMENT_3D('',#377,#311,#312);
#256=AXIS2_PLACEMENT_3D('',#379,#313,#314);
#257=AXIS2_PLACEMENT_3D('',#380,#315,#316);
#258=AXIS2_PLACEMENT_3D('',#410,#317,#318);
#259=AXIS2_PLACEMENT_3D('',#412,#319,#320);
#260=AXIS2_PLACEMENT_3D('',#413,#321,#322);
#261=DIRECTION('',(0.,0.,1.));
#262=DIRECTION('',(1.,0.,0.));
#263=DIRECTION('',(0.,0.,1.));
#264=DIRECTION('',(1.,0.,0.));
#265=DIRECTION('',(0.,0.,1.));
#266=DIRECTION('',(1.,0.,0.));
#267=DIRECTION('',(0.,0.,1.));
#268=DIRECTION('',(1.,0.,0.));
#269=DIRECTION('',(0.,0.,-1.));
#270=DIRECTION('',(1.,0.,0.));
#271=DIRECTION('',(0.,0.,1.));
#272=DIRECTION('',(-1.,0.,0.));
#273=DIRECTION('',(0.,0.,1.));
#274=DIRECTION('',(1.,0.,0.));
#275=DIRECTION('',(0.,0.,1.));
#276=DIRECTION('',(1.,0.,0.));
#277=DIRECTION('',(0.,0.,1.));
#278=DIRECTION('',(1.,0.,0.));
#279=DIRECTION('',(0.,0.,1.));
#280=DIRECTION('',(1.,0.,1.05334252810738E-15));
#281=DIRECTION('',(0.,0.,1.));
#282=DIRECTION('',(1.,0.,0.));
#283=DIRECTION('',(0.,0.,1.));
#284=DIRECTION('',(-1.,0.,0.));
#285=DIRECTION('',(0.,0.,-1.));
#286=DIRECTION('',(-1.,0.,0.));
#287=DIRECTION('',(0.,0.,-1.));
#288=DIRECTION('',(-1.,0.,0.));
#289=DIRECTION('',(0.,0.,1.));
#290=DIRECTION('',(1.,0.,0.));
#291=DIRECTION('',(0.,0.,-1.));
#292=DIRECTION('',(-1.,0.,0.));
#293=DIRECTION('',(0.,0.,-1.));
#294=DIRECTION('',(-1.,0.,0.));
#295=DIRECTION('',(0.,0.,-1.));
#296=DIRECTION('',(-1.,0.,0.));
#297=DIRECTION('',(0.,0.,-1.));
#298=DIRECTION('',(-1.,0.,0.));
#299=DIRECTION('',(0.,0.,-1.));
#300=DIRECTION('',(-1.,0.,0.));
#301=DIRECTION('',(0.,0.,-1.));
#302=DIRECTION('',(-1.,0.,0.));
#303=DIRECTION('',(0.,0.,-1.));
#304=DIRECTION('',(-1.,0.,0.));
#305=DIRECTION('',(0.,0.,-1.));
#306=DIRECTION('',(-1.,0.,0.));
#307=DIRECTION('',(0.,0.,-1.));
#308=DIRECTION('',(-1.,0.,-5.35318311389067E-17));
#309=DIRECTION('',(0.,0.,-1.));
#310=DIRECTION('',(-1.,0.,0.));
#311=DIRECTION('',(0.,0.,-1.));
#312=DIRECTION('',(1.,0.,0.));
#313=DIRECTION('',(0.,0.,1.));
#314=DIRECTION('',(1.,0.,0.));
#315=DIRECTION('',(0.,0.,-1.));
#316=DIRECTION('',(-1.,0.,0.));
#317=DIRECTION('',(0.,0.,1.));
#318=DIRECTION('',(-1.,0.,0.));
#319=DIRECTION('',(0.,0.,-1.));
#320=DIRECTION('',(-1.,0.,0.));
#321=DIRECTION('',(0.,0.,1.));
#322=DIRECTION('',(1.,0.,0.));
#323=CARTESIAN_POINT('',(0.,0.,0.));
#324=CARTESIAN_POINT('',(0.,0.,-36.));
#325=CARTESIAN_POINT('CRP',(-3.,0.,-60.));
#326=CARTESIAN_POINT('CIP_DCSYS',(0.,0.,-60.));
#327=CARTESIAN_POINT('',(-2.79997758614885,0.,-59.1818219704365));
#328=CARTESIAN_POINT('',(-3.09798164822453,0.,-57.5701533124294));
#329=CARTESIAN_POINT('',(-3.06419114182472,0.,-55.9315134844338));
#330=CARTESIAN_POINT('',(-2.7,0.,-54.3335));
#331=CARTESIAN_POINT('',(-1.8,0.,-54.3335));
#332=CARTESIAN_POINT('',(-0.9,0.,-54.3335));
#333=CARTESIAN_POINT('',(0.,0.,-54.3335));
#334=CARTESIAN_POINT('',(0.,0.,-56.2223333333333));
#335=CARTESIAN_POINT('',(0.,0.,-58.1111666666667));
#336=CARTESIAN_POINT('',(0.,0.,-60.));
#337=CARTESIAN_POINT('',(-0.605548706878844,0.,-60.));
#338=CARTESIAN_POINT('',(-1.21109741375769,0.,-60.));
#339=CARTESIAN_POINT('',(-1.81664612063652,1.0842021724855E-16,-60.));
#340=CARTESIAN_POINT('',(-2.32078182203778,1.9868298496281E-16,-60.));
#341=CARTESIAN_POINT('',(-2.70831463955269,2.16840434497101E-16,-59.6775544685124));
#342=CARTESIAN_POINT('',(-2.79997758614884,2.16840434497101E-16,-59.1818219704365));
#343=CARTESIAN_POINT('',(0.,0.,0.));
#344=CARTESIAN_POINT('',(0.,0.,-36.));
#345=CARTESIAN_POINT('',(0.,0.,-60.));
#346=CARTESIAN_POINT('',(0.,0.,-41.9991969600313));
#347=CARTESIAN_POINT('',(2.7,0.,-41.9991969600313));
#348=CARTESIAN_POINT('',(0.,2.22044604925031E-16,-52.96682));
#349=CARTESIAN_POINT('',(-2.7,2.22044604925031E-16,-52.96682));
#350=CARTESIAN_POINT('',(0.,0.,0.));
#351=CARTESIAN_POINT('',(0.,0.,-41.9492593430874));
#352=CARTESIAN_POINT('',(2.70124766112215,0.,-41.9492593430874));
#353=CARTESIAN_POINT('',(0.,0.,-35.9742125655304));
#354=CARTESIAN_POINT('',(3.,0.,-35.9742125655304));
#355=CARTESIAN_POINT('',(0.,0.,-41.9742125655305));
#356=CARTESIAN_POINT('',(0.,0.,-41.9991969600313));
#357=CARTESIAN_POINT('',(0.,0.,0.));
#358=CARTESIAN_POINT('',(-2.6,0.,0.));
#359=CARTESIAN_POINT('',(0.,3.00000000000001,0.));
#360=CARTESIAN_POINT('',(0.,0.,-0.400000000000001));
#361=CARTESIAN_POINT('',(-3.,0.,-0.400000000000001));
#362=CARTESIAN_POINT('',(0.,0.,20.9080749503476));
#363=CARTESIAN_POINT('',(0.,0.,0.));
#364=CARTESIAN_POINT('',(0.,2.22044604925031E-16,-53.6313196336145));
#365=CARTESIAN_POINT('',(-2.61832,2.22044604925031E-16,-53.6313196336145));
#366=CARTESIAN_POINT('',(0.,0.,-53.6313196336145));
#367=CARTESIAN_POINT('',(0.,2.22044604925031E-16,-54.1313196336145));
#368=CARTESIAN_POINT('',(-2.61832,2.22044604925031E-16,-54.1313196336145));
#369=CARTESIAN_POINT('',(0.,2.22044604925031E-16,-59.9527722396569));
#370=CARTESIAN_POINT('',(0.,2.22044604925031E-16,-54.270484867471));
#371=CARTESIAN_POINT('',(-2.65932945694542,2.22044604925031E-16,-54.270484867471));
#372=CARTESIAN_POINT('',(0.,4.33680868994202E-16,-54.1313196336145));
#373=CARTESIAN_POINT('',(0.,2.22044604925031E-16,-54.3335));
#374=CARTESIAN_POINT('',(-2.7,2.22044604925031E-16,-54.3335));
#375=CARTESIAN_POINT('',(0.,2.22044604925031E-16,-54.3335));
#376=CARTESIAN_POINT('',(0.,0.,-54.3335));
#377=CARTESIAN_POINT('',(0.,2.22044604925031E-16,-54.3335));
#378=CARTESIAN_POINT('',(2.7,2.22044604925031E-16,-54.3335));
#379=CARTESIAN_POINT('',(0.,0.,-54.3335));
#380=CARTESIAN_POINT('',(0.,2.22044604925031E-16,-59.1818219704365));
#381=CARTESIAN_POINT('',(-2.79997758614885,2.22044604925031E-16,-59.1818219704365));
#382=CARTESIAN_POINT('',(-2.79997758614885,0.,-59.1818219704365));
#383=CARTESIAN_POINT('',(-2.79997758614885,5.5999551722977,-59.1818219704365));
#384=CARTESIAN_POINT('',(2.79997758614885,5.5999551722977,-59.1818219704365));
#385=CARTESIAN_POINT('',(2.79997758614885,0.,-59.1818219704365));
#386=CARTESIAN_POINT('',(2.79997758614885,-5.5999551722977,-59.1818219704365));
#387=CARTESIAN_POINT('',(-2.79997758614885,-5.5999551722977,-59.1818219704365));
#388=CARTESIAN_POINT('',(-2.79997758614885,0.,-59.1818219704365));
#389=CARTESIAN_POINT('',(-3.09798164822454,0.,-57.5701533124294));
#390=CARTESIAN_POINT('',(-3.09798164822454,6.19596329644908,-57.5701533124294));
#391=CARTESIAN_POINT('',(3.09798164822454,6.19596329644908,-57.5701533124294));
#392=CARTESIAN_POINT('',(3.09798164822454,0.,-57.5701533124294));
#393=CARTESIAN_POINT('',(3.09798164822454,-6.19596329644908,-57.5701533124294));
#394=CARTESIAN_POINT('',(-3.09798164822454,-6.19596329644908,-57.5701533124294));
#395=CARTESIAN_POINT('',(-3.09798164822454,0.,-57.5701533124294));
#396=CARTESIAN_POINT('',(-3.06419114182473,0.,-55.9315134844339));
#397=CARTESIAN_POINT('',(-3.06419114182473,6.12838228364947,-55.9315134844338));
#398=CARTESIAN_POINT('',(3.06419114182473,6.12838228364947,-55.9315134844338));
#399=CARTESIAN_POINT('',(3.06419114182473,0.,-55.9315134844339));
#400=CARTESIAN_POINT('',(3.06419114182473,-6.12838228364947,-55.9315134844338));
#401=CARTESIAN_POINT('',(-3.06419114182473,-6.12838228364947,-55.9315134844338));
#402=CARTESIAN_POINT('',(-3.06419114182473,0.,-55.9315134844339));
#403=CARTESIAN_POINT('',(-2.7,0.,-54.3335));
#404=CARTESIAN_POINT('',(-2.7,5.4,-54.3335));
#405=CARTESIAN_POINT('',(2.7,5.4,-54.3335));
#406=CARTESIAN_POINT('',(2.7,0.,-54.3335));
#407=CARTESIAN_POINT('',(2.7,-5.4,-54.3335));
#408=CARTESIAN_POINT('',(-2.7,-5.4,-54.3335));
#409=CARTESIAN_POINT('',(-2.7,0.,-54.3335));
#410=CARTESIAN_POINT('',(0.,2.22044604925031E-16,-60.));
#411=CARTESIAN_POINT('',(-1.81664612063653,2.22044604925031E-16,-60.));
#412=CARTESIAN_POINT('',(0.,2.16840434497101E-16,-59.));
#413=CARTESIAN_POINT('',(0.,0.,-60.));
#414=MECHANICAL_DESIGN_GEOMETRIC_PRESENTATION_REPRESENTATION('',(#202,#203,
#204,#205,#206,#207,#208,#209,#210),#415);
#415=(
GEOMETRIC_REPRESENTATION_CONTEXT(3)
GLOBAL_UNCERTAINTY_ASSIGNED_CONTEXT((#416))
GLOBAL_UNIT_ASSIGNED_CONTEXT((#422,#418,#417))
REPRESENTATION_CONTEXT('TOOL','TOP_LEVEL_ASSEMBLY_PART')
);
#416=UNCERTAINTY_MEASURE_WITH_UNIT(LENGTH_MEASURE(0.0254),#422,
'DISTANCE_ACCURACY_VALUE','Maximum Tolerance applied to model');
#417=(
NAMED_UNIT(*)
SI_UNIT($,.STERADIAN.)
SOLID_ANGLE_UNIT()
);
#418=(
CONVERSION_BASED_UNIT('DEGREE',#420)
NAMED_UNIT(#419)
PLANE_ANGLE_UNIT()
);
#419=DIMENSIONAL_EXPONENTS(0.,0.,0.,0.,0.,0.,0.);
#420=PLANE_ANGLE_MEASURE_WITH_UNIT(PLANE_ANGLE_MEASURE(0.0174532925),#421);
#421=(
NAMED_UNIT(*)
PLANE_ANGLE_UNIT()
SI_UNIT($,.RADIAN.)
);
#422=(
LENGTH_UNIT()
NAMED_UNIT(*)
SI_UNIT(.MILLI.,.METRE.)
);
ENDSEC;
END-ISO-10303-21;
