ISO-10303-21;
HEADER;
/* Generated by software containing ST-Developer
 * from STEP Tools, Inc. (www.steptools.com) 
 */
/* OPTION: using custom schema-name function */

FILE_DESCRIPTION(
/* description */ (''),
/* implementation_level */ '2;1');

FILE_NAME(
/* name */ '462.1-0300-009A0-XM.stp',
/* time_stamp */ '2024-12-10T11:42:22+00:00',
/* author */ (''),
/* organization */ (''),
/* preprocessor_version */ 'ST-DEVELOPER v16.7',
/* originating_system */ 'SIEMENS PLM Software NX 12.0',
/* authorisation */ '');

FILE_SCHEMA (('AUTOMOTIVE_DESIGN { 1 0 10303 214 3 1 1 1 }'));
ENDSEC;

DATA;
#10=CONSTRUCTIVE_GEOMETRY_REPRESENTATION_RELATIONSHIP(
'supplemental geometry','',#34,#11);
#11=CONSTRUCTIVE_GEOMETRY_REPRESENTATION('supplemental geometry',(#214,
#215,#216),#318);
#12=GEOMETRICALLY_BOUNDED_WIREFRAME_SHAPE_REPRESENTATION(
'462.1-0300-009A0-XM-None',(#35),#318);
#13=PROPERTY_DEFINITION_REPRESENTATION(#17,#15);
#14=PROPERTY_DEFINITION_REPRESENTATION(#18,#16);
#15=REPRESENTATION('',(#19),#318);
#16=REPRESENTATION('',(#20),#318);
#17=PROPERTY_DEFINITION('pmi validation property','',#25);
#18=PROPERTY_DEFINITION('pmi validation property','',#25);
#19=VALUE_REPRESENTATION_ITEM('number of annotations',COUNT_MEASURE(0.));
#20=VALUE_REPRESENTATION_ITEM('number of views',COUNT_MEASURE(0.));
#21=SHAPE_REPRESENTATION_RELATIONSHIP('None',
'relationship between 462.1-0300-009A0-XM-None and 462.1-0300-009A0-XM
-None',#34,#23);
#22=SHAPE_REPRESENTATION_RELATIONSHIP('None',
'relationship between 462.1-0300-009A0-XM-None and 462.1-0300-009A0-XM
-None',#34,#12);
#23=ADVANCED_BREP_SHAPE_REPRESENTATION('462.1-0300-009A0-XM-None',(#47,
#48),#318);
#24=SHAPE_DEFINITION_REPRESENTATION(#25,#34);
#25=PRODUCT_DEFINITION_SHAPE('','',#26);
#26=PRODUCT_DEFINITION(' ','',#28,#27);
#27=PRODUCT_DEFINITION_CONTEXT('part definition',#33,'design');
#28=PRODUCT_DEFINITION_FORMATION_WITH_SPECIFIED_SOURCE(' ',' ',#30,
 .NOT_KNOWN.);
#29=PRODUCT_RELATED_PRODUCT_CATEGORY('part','',(#30));
#30=PRODUCT('462.1-0300-009A0-XM','462.1-0300-009A0-XM',' ',(#31));
#31=PRODUCT_CONTEXT(' ',#33,'mechanical');
#32=APPLICATION_PROTOCOL_DEFINITION('international standard',
'automotive_design',2010,#33);
#33=APPLICATION_CONTEXT(
'core data for automotive mechanical design processes');
#34=SHAPE_REPRESENTATION('462.1-0300-009A0-XM-None',(#212),#318);
#35=GEOMETRIC_CURVE_SET('None',(#271,#272,#273,#274,#139,#140,#141,#142,
#143,#144,#145,#146,#107));
#36=VERTEX_LOOP('',#100);
#37=SURFACE_STYLE_USAGE(.BOTH.,#39);
#38=SURFACE_STYLE_USAGE(.BOTH.,#40);
#39=SURFACE_SIDE_STYLE('',(#41));
#40=SURFACE_SIDE_STYLE('',(#42));
#41=SURFACE_STYLE_FILL_AREA(#43);
#42=SURFACE_STYLE_FILL_AREA(#44);
#43=FILL_AREA_STYLE('',(#45));
#44=FILL_AREA_STYLE('',(#46));
#45=FILL_AREA_STYLE_COLOUR('',#162);
#46=FILL_AREA_STYLE_COLOUR('',#163);
#47=MANIFOLD_SOLID_BREP('NOCUT',#49);
#48=MANIFOLD_SOLID_BREP('CUT',#50);
#49=CLOSED_SHELL('',(#63,#64,#65,#66));
#50=CLOSED_SHELL('',(#67,#68,#69));
#51=CYLINDRICAL_SURFACE('',#223,1.5);
#52=CYLINDRICAL_SURFACE('',#228,1.5);
#53=CONICAL_SURFACE('',#222,1.5,29.9999999999999);
#54=CONICAL_SURFACE('',#227,1.5,65.0000000000001);
#55=FACE_BOUND('',#78,.T.);
#56=FACE_BOUND('',#79,.T.);
#57=FACE_BOUND('',#80,.T.);
#58=FACE_BOUND('',#81,.T.);
#59=FACE_BOUND('',#36,.T.);
#60=FACE_BOUND('',#83,.T.);
#61=FACE_BOUND('',#84,.T.);
#62=FACE_BOUND('',#85,.T.);
#63=ADVANCED_FACE('',(#73),#70,.T.);
#64=ADVANCED_FACE('',(#74),#71,.F.);
#65=ADVANCED_FACE('',(#55,#56),#53,.T.);
#66=ADVANCED_FACE('',(#57,#58),#51,.T.);
#67=ADVANCED_FACE('',(#75),#72,.F.);
#68=ADVANCED_FACE('',(#59,#60),#54,.T.);
#69=ADVANCED_FACE('',(#61,#62),#52,.T.);
#70=PLANE('',#218);
#71=PLANE('',#220);
#72=PLANE('',#225);
#73=FACE_OUTER_BOUND('',#76,.T.);
#74=FACE_OUTER_BOUND('',#77,.T.);
#75=FACE_OUTER_BOUND('',#82,.T.);
#76=EDGE_LOOP('',(#86));
#77=EDGE_LOOP('',(#87));
#78=EDGE_LOOP('',(#88));
#79=EDGE_LOOP('',(#89));
#80=EDGE_LOOP('',(#90));
#81=EDGE_LOOP('',(#91));
#82=EDGE_LOOP('',(#92));
#83=EDGE_LOOP('',(#93));
#84=EDGE_LOOP('',(#94));
#85=EDGE_LOOP('',(#95));
#86=ORIENTED_EDGE('',*,*,#102,.T.);
#87=ORIENTED_EDGE('',*,*,#103,.F.);
#88=ORIENTED_EDGE('',*,*,#103,.T.);
#89=ORIENTED_EDGE('',*,*,#104,.F.);
#90=ORIENTED_EDGE('',*,*,#102,.F.);
#91=ORIENTED_EDGE('',*,*,#104,.T.);
#92=ORIENTED_EDGE('',*,*,#105,.F.);
#93=ORIENTED_EDGE('',*,*,#106,.T.);
#94=ORIENTED_EDGE('',*,*,#106,.F.);
#95=ORIENTED_EDGE('',*,*,#105,.T.);
#96=VERTEX_POINT('',#300);
#97=VERTEX_POINT('',#303);
#98=VERTEX_POINT('',#306);
#99=VERTEX_POINT('',#310);
#100=VERTEX_POINT('',#312);
#101=VERTEX_POINT('',#314);
#102=EDGE_CURVE('',#96,#96,#109,.T.);
#103=EDGE_CURVE('',#97,#97,#110,.T.);
#104=EDGE_CURVE('',#98,#98,#111,.T.);
#105=EDGE_CURVE('',#99,#99,#112,.T.);
#106=EDGE_CURVE('',#101,#101,#113,.T.);
#107=B_SPLINE_CURVE_WITH_KNOTS('CUTTING PART LINE',3,(#283,#284,#285,#286,
#287,#288,#289,#290,#291,#292,#293,#294,#295),.UNSPECIFIED.,.T.,.F.,(4,
3,3,3,4),(0.,0.410174327515903,0.487313464270079,0.930088199672557,1.),
 .UNSPECIFIED.);
#108=CIRCLE('Arc1',#213,0.999999999999999);
#109=CIRCLE('',#217,1.5);
#110=CIRCLE('',#219,1.32679491924311);
#111=CIRCLE('',#221,1.5);
#112=CIRCLE('',#224,1.5);
#113=CIRCLE('',#226,1.5);
#114=INVISIBILITY((#170,#171,#172,#173,#174,#175,#176,#177));
#115=CURVE_STYLE('',#127,POSITIVE_LENGTH_MEASURE(0.18),#210);
#116=CURVE_STYLE('',#128,POSITIVE_LENGTH_MEASURE(0.18),#210);
#117=CURVE_STYLE('',#129,POSITIVE_LENGTH_MEASURE(0.18),#210);
#118=CURVE_STYLE('',#130,POSITIVE_LENGTH_MEASURE(0.18),#210);
#119=CURVE_STYLE('',#131,POSITIVE_LENGTH_MEASURE(0.18),#210);
#120=CURVE_STYLE('',#132,POSITIVE_LENGTH_MEASURE(0.18),#210);
#121=CURVE_STYLE('',#133,POSITIVE_LENGTH_MEASURE(0.18),#210);
#122=CURVE_STYLE('',#134,POSITIVE_LENGTH_MEASURE(0.18),#210);
#123=CURVE_STYLE('',#135,POSITIVE_LENGTH_MEASURE(0.18),#211);
#124=CURVE_STYLE('',#136,POSITIVE_LENGTH_MEASURE(0.18),#161);
#125=CURVE_STYLE('',#137,POSITIVE_LENGTH_MEASURE(0.18),#161);
#126=CURVE_STYLE('',#138,POSITIVE_LENGTH_MEASURE(0.18),#161);
#127=DRAUGHTING_PRE_DEFINED_CURVE_FONT('continuous');
#128=DRAUGHTING_PRE_DEFINED_CURVE_FONT('continuous');
#129=DRAUGHTING_PRE_DEFINED_CURVE_FONT('continuous');
#130=DRAUGHTING_PRE_DEFINED_CURVE_FONT('continuous');
#131=DRAUGHTING_PRE_DEFINED_CURVE_FONT('continuous');
#132=DRAUGHTING_PRE_DEFINED_CURVE_FONT('continuous');
#133=DRAUGHTING_PRE_DEFINED_CURVE_FONT('continuous');
#134=DRAUGHTING_PRE_DEFINED_CURVE_FONT('continuous');
#135=DRAUGHTING_PRE_DEFINED_CURVE_FONT('continuous');
#136=DRAUGHTING_PRE_DEFINED_CURVE_FONT('continuous');
#137=DRAUGHTING_PRE_DEFINED_CURVE_FONT('continuous');
#138=DRAUGHTING_PRE_DEFINED_CURVE_FONT('continuous');
#139=TRIMMED_CURVE('Line1',#147,(PARAMETER_VALUE(0.)),(
PARAMETER_VALUE(1.)),.T.,.PARAMETER.);
#140=TRIMMED_CURVE('Line3',#148,(PARAMETER_VALUE(0.)),(
PARAMETER_VALUE(1.)),.T.,.PARAMETER.);
#141=TRIMMED_CURVE('Line6',#149,(PARAMETER_VALUE(0.)),(
PARAMETER_VALUE(1.)),.T.,.PARAMETER.);
#142=TRIMMED_CURVE('Line7',#150,(PARAMETER_VALUE(0.)),(
PARAMETER_VALUE(1.)),.T.,.PARAMETER.);
#143=TRIMMED_CURVE('Line8',#151,(PARAMETER_VALUE(0.)),(
PARAMETER_VALUE(1.)),.T.,.PARAMETER.);
#144=TRIMMED_CURVE('Line9',#152,(PARAMETER_VALUE(0.)),(
PARAMETER_VALUE(1.)),.T.,.PARAMETER.);
#145=TRIMMED_CURVE('Line11',#153,(PARAMETER_VALUE(0.)),(
PARAMETER_VALUE(1.)),.T.,.PARAMETER.);
#146=TRIMMED_CURVE('Arc1',#108,(PARAMETER_VALUE(90.)),(
PARAMETER_VALUE(90.)),.T.,.PARAMETER.);
#147=LINE('Line1',#275,#154);
#148=LINE('Line3',#276,#155);
#149=LINE('Line6',#277,#156);
#150=LINE('Line7',#278,#157);
#151=LINE('Line8',#279,#158);
#152=LINE('Line9',#280,#159);
#153=LINE('Line11',#281,#160);
#154=VECTOR('',#231,20.7);
#155=VECTOR('',#232,7.5);
#156=VECTOR('',#233,8.8005385127675);
#157=VECTOR('',#234,1.65506687844374);
#158=VECTOR('',#235,9.5);
#159=VECTOR('',#236,1.5);
#160=VECTOR('',#237,0.346410161513776);
#161=COLOUR_RGB('Medium Maroon',0.6,0.4,0.4);
#162=COLOUR_RGB('Medium Gray',0.501960784313725,0.501960784313725,0.501960784313725);
#163=COLOUR_RGB('Light Gray',0.8,0.8,0.8);
#164=PRESENTATION_LAYER_ASSIGNMENT('1','Layer 1',(#271,#272,#273,#274,#107,
#214,#215,#216,#47,#48));
#165=PRESENTATION_LAYER_ASSIGNMENT('40','Layer 40',(#139,#140,#141,#142,
#143,#144,#145,#146));
#166=STYLED_ITEM('',(#184),#271);
#167=STYLED_ITEM('',(#185),#272);
#168=STYLED_ITEM('',(#186),#273);
#169=STYLED_ITEM('',(#187),#274);
#170=STYLED_ITEM('',(#188),#139);
#171=STYLED_ITEM('',(#189),#140);
#172=STYLED_ITEM('',(#190),#141);
#173=STYLED_ITEM('',(#191),#142);
#174=STYLED_ITEM('',(#192),#143);
#175=STYLED_ITEM('',(#193),#144);
#176=STYLED_ITEM('',(#194),#145);
#177=STYLED_ITEM('',(#195),#146);
#178=STYLED_ITEM('',(#196),#107);
#179=STYLED_ITEM('',(#197),#214);
#180=STYLED_ITEM('',(#198),#215);
#181=STYLED_ITEM('',(#199),#216);
#182=STYLED_ITEM('',(#200),#47);
#183=STYLED_ITEM('',(#201),#48);
#184=PRESENTATION_STYLE_ASSIGNMENT((#202));
#185=PRESENTATION_STYLE_ASSIGNMENT((#203));
#186=PRESENTATION_STYLE_ASSIGNMENT((#204));
#187=PRESENTATION_STYLE_ASSIGNMENT((#205));
#188=PRESENTATION_STYLE_ASSIGNMENT((#115));
#189=PRESENTATION_STYLE_ASSIGNMENT((#116));
#190=PRESENTATION_STYLE_ASSIGNMENT((#117));
#191=PRESENTATION_STYLE_ASSIGNMENT((#118));
#192=PRESENTATION_STYLE_ASSIGNMENT((#119));
#193=PRESENTATION_STYLE_ASSIGNMENT((#120));
#194=PRESENTATION_STYLE_ASSIGNMENT((#121));
#195=PRESENTATION_STYLE_ASSIGNMENT((#122));
#196=PRESENTATION_STYLE_ASSIGNMENT((#123));
#197=PRESENTATION_STYLE_ASSIGNMENT((#124));
#198=PRESENTATION_STYLE_ASSIGNMENT((#125));
#199=PRESENTATION_STYLE_ASSIGNMENT((#126));
#200=PRESENTATION_STYLE_ASSIGNMENT((#37));
#201=PRESENTATION_STYLE_ASSIGNMENT((#38));
#202=POINT_STYLE('',#206,POSITIVE_LENGTH_MEASURE(3.),#210);
#203=POINT_STYLE('',#207,POSITIVE_LENGTH_MEASURE(3.),#161);
#204=POINT_STYLE('',#208,POSITIVE_LENGTH_MEASURE(3.),#161);
#205=POINT_STYLE('',#209,POSITIVE_LENGTH_MEASURE(3.),#161);
#206=PRE_DEFINED_POINT_MARKER_SYMBOL('plus');
#207=PRE_DEFINED_POINT_MARKER_SYMBOL('plus');
#208=PRE_DEFINED_POINT_MARKER_SYMBOL('plus');
#209=PRE_DEFINED_POINT_MARKER_SYMBOL('plus');
#210=DRAUGHTING_PRE_DEFINED_COLOUR('white');
#211=DRAUGHTING_PRE_DEFINED_COLOUR('blue');
#212=AXIS2_PLACEMENT_3D('',#270,#229,#230);
#213=AXIS2_PLACEMENT_3D('',#282,#238,#239);
#214=AXIS2_PLACEMENT_3D('PCS',#296,#240,#241);
#215=AXIS2_PLACEMENT_3D('MCS',#297,#242,#243);
#216=AXIS2_PLACEMENT_3D('CIP',#298,#244,#245);
#217=AXIS2_PLACEMENT_3D('',#299,#246,#247);
#218=AXIS2_PLACEMENT_3D('',#301,#248,#249);
#219=AXIS2_PLACEMENT_3D('',#302,#250,#251);
#220=AXIS2_PLACEMENT_3D('',#304,#252,#253);
#221=AXIS2_PLACEMENT_3D('',#305,#254,#255);
#222=AXIS2_PLACEMENT_3D('',#307,#256,#257);
#223=AXIS2_PLACEMENT_3D('',#308,#258,#259);
#224=AXIS2_PLACEMENT_3D('',#309,#260,#261);
#225=AXIS2_PLACEMENT_3D('',#311,#262,#263);
#226=AXIS2_PLACEMENT_3D('',#313,#264,#265);
#227=AXIS2_PLACEMENT_3D('',#315,#266,#267);
#228=AXIS2_PLACEMENT_3D('',#316,#268,#269);
#229=DIRECTION('',(0.,0.,1.));
#230=DIRECTION('',(1.,0.,0.));
#231=DIRECTION('',(1.39448302609923E-16,0.,-1.));
#232=DIRECTION('',(8.88178419700125E-17,0.,-1.));
#233=DIRECTION('',(1.51384784876219E-16,0.,-1.));
#234=DIRECTION('',(-0.90630778703665,0.,-0.422618261740699));
#235=DIRECTION('',(0.,0.,1.));
#236=DIRECTION('',(1.,0.,0.));
#237=DIRECTION('',(-0.5,0.,0.866025403784438));
#238=DIRECTION('',(0.,-1.,0.));
#239=DIRECTION('',(0.,0.,1.));
#240=DIRECTION('',(0.,0.,1.));
#241=DIRECTION('',(1.,0.,0.));
#242=DIRECTION('',(0.,0.,1.));
#243=DIRECTION('',(1.,0.,0.));
#244=DIRECTION('',(0.,0.,1.));
#245=DIRECTION('',(1.,0.,0.));
#246=DIRECTION('',(0.,0.,-1.));
#247=DIRECTION('',(-1.,0.,0.));
#248=DIRECTION('',(0.,0.,-1.));
#249=DIRECTION('',(-1.,0.,0.));
#250=DIRECTION('',(0.,0.,-1.));
#251=DIRECTION('',(-1.,0.,0.));
#252=DIRECTION('',(0.,0.,-1.));
#253=DIRECTION('',(-1.,0.,0.));
#254=DIRECTION('',(0.,0.,-1.));
#255=DIRECTION('',(-1.,0.,0.));
#256=DIRECTION('',(0.,0.,-1.));
#257=DIRECTION('',(-1.,0.,5.99368634104767E-17));
#258=DIRECTION('',(0.,0.,-1.));
#259=DIRECTION('',(-1.,0.,0.));
#260=DIRECTION('',(0.,0.,-1.));
#261=DIRECTION('',(-1.,0.,0.));
#262=DIRECTION('',(0.,0.,-1.));
#263=DIRECTION('',(-1.,0.,0.));
#264=DIRECTION('',(0.,0.,-1.));
#265=DIRECTION('',(-1.,0.,0.));
#266=DIRECTION('',(0.,0.,1.));
#267=DIRECTION('',(1.,0.,6.46679545866478E-18));
#268=DIRECTION('',(0.,0.,-1.));
#269=DIRECTION('',(-1.,0.,0.));
#270=CARTESIAN_POINT('',(0.,0.,0.));
#271=CARTESIAN_POINT('CRP',(1.5,0.,-37.3005385127675));
#272=CARTESIAN_POINT('',(0.,0.,0.));
#273=CARTESIAN_POINT('',(0.,0.,-21.));
#274=CARTESIAN_POINT('',(0.,0.,-38.));
#275=CARTESIAN_POINT('',(1.5,0.,-0.3));
#276=CARTESIAN_POINT('',(1.5,0.,-21.));
#277=CARTESIAN_POINT('',(1.5,0.,-28.5));
#278=CARTESIAN_POINT('',(1.5,0.,-37.3005385127675));
#279=CARTESIAN_POINT('',(0.,0.,-38.));
#280=CARTESIAN_POINT('',(0.,0.,-28.5));
#281=CARTESIAN_POINT('',(1.5,0.,-0.3));
#282=CARTESIAN_POINT('',(2.5,0.,-21.));
#283=CARTESIAN_POINT('',(1.5,0.,-28.5));
#284=CARTESIAN_POINT('',(1.5,0.,-31.4335128375892));
#285=CARTESIAN_POINT('',(1.5,0.,-34.3670256751783));
#286=CARTESIAN_POINT('',(1.5,0.,-37.3005385127675));
#287=CARTESIAN_POINT('',(1.,0.,-37.533692341845));
#288=CARTESIAN_POINT('',(0.500000000000001,0.,-37.7668461709225));
#289=CARTESIAN_POINT('',(0.,0.,-38.));
#290=CARTESIAN_POINT('',(0.,0.,-34.8333333333333));
#291=CARTESIAN_POINT('',(0.,0.,-31.6666666666667));
#292=CARTESIAN_POINT('',(0.,0.,-28.5));
#293=CARTESIAN_POINT('',(0.5,0.,-28.5));
#294=CARTESIAN_POINT('',(1.,0.,-28.5));
#295=CARTESIAN_POINT('',(1.5,0.,-28.5));
#296=CARTESIAN_POINT('',(0.,0.,0.));
#297=CARTESIAN_POINT('',(0.,0.,-21.));
#298=CARTESIAN_POINT('',(0.,0.,-38.));
#299=CARTESIAN_POINT('',(0.,0.,-28.5));
#300=CARTESIAN_POINT('',(-1.5,0.,-28.5));
#301=CARTESIAN_POINT('',(0.,0.,-28.5));
#302=CARTESIAN_POINT('',(0.,0.,5.42101086242752E-17));
#303=CARTESIAN_POINT('',(-1.32679491924311,0.,5.42101086242752E-17));
#304=CARTESIAN_POINT('',(0.,0.,5.42101086242752E-17));
#305=CARTESIAN_POINT('',(0.,0.,-0.300000000000002));
#306=CARTESIAN_POINT('',(-1.5,0.,-0.300000000000002));
#307=CARTESIAN_POINT('',(0.,0.,-0.300000000000002));
#308=CARTESIAN_POINT('',(0.,0.,0.));
#309=CARTESIAN_POINT('',(0.,0.,-28.5));
#310=CARTESIAN_POINT('',(-1.5,0.,-28.5));
#311=CARTESIAN_POINT('',(0.,0.,-28.5));
#312=CARTESIAN_POINT('',(4.33680868994202E-16,0.,-38.));
#313=CARTESIAN_POINT('',(0.,0.,-37.3005385127675));
#314=CARTESIAN_POINT('',(-1.5,0.,-37.3005385127675));
#315=CARTESIAN_POINT('',(0.,0.,-37.3005385127675));
#316=CARTESIAN_POINT('',(0.,0.,0.));
#317=MECHANICAL_DESIGN_GEOMETRIC_PRESENTATION_REPRESENTATION('',(#166,#167,
#168,#169,#170,#171,#172,#173,#174,#175,#176,#177,#178,#179,#180,#181,#182,
#183),#318);
#318=(
GEOMETRIC_REPRESENTATION_CONTEXT(3)
GLOBAL_UNCERTAINTY_ASSIGNED_CONTEXT((#319))
GLOBAL_UNIT_ASSIGNED_CONTEXT((#325,#321,#320))
REPRESENTATION_CONTEXT('462','TOP_LEVEL_ASSEMBLY_PART')
);
#319=UNCERTAINTY_MEASURE_WITH_UNIT(LENGTH_MEASURE(2.E-5),#325,
'DISTANCE_ACCURACY_VALUE','Maximum Tolerance applied to model');
#320=(
NAMED_UNIT(*)
SI_UNIT($,.STERADIAN.)
SOLID_ANGLE_UNIT()
);
#321=(
CONVERSION_BASED_UNIT('DEGREE',#323)
NAMED_UNIT(#322)
PLANE_ANGLE_UNIT()
);
#322=DIMENSIONAL_EXPONENTS(0.,0.,0.,0.,0.,0.,0.);
#323=PLANE_ANGLE_MEASURE_WITH_UNIT(PLANE_ANGLE_MEASURE(0.0174532925),#324);
#324=(
NAMED_UNIT(*)
PLANE_ANGLE_UNIT()
SI_UNIT($,.RADIAN.)
);
#325=(
LENGTH_UNIT()
NAMED_UNIT(*)
SI_UNIT(.MILLI.,.METRE.)
);
ENDSEC;
END-ISO-10303-21;
