ISO-10303-21;
HEADER;
/* Generated by software containing ST-Developer
 * from STEP Tools, Inc. (www.steptools.com) 
 */
/* OPTION: using custom schema-name function */

FILE_DESCRIPTION(
/* description */ (''),
/* implementation_level */ '2;1');

FILE_NAME(
/* name */ '462.1-0100-005A0-XM.stp',
/* time_stamp */ '2024-12-10T11:37:46+00:00',
/* author */ (''),
/* organization */ (''),
/* preprocessor_version */ 'ST-DEVELOPER v16.7',
/* originating_system */ 'SIEMENS PLM Software NX 12.0',
/* authorisation */ '');

FILE_SCHEMA (('AUTOMOTIVE_DESIGN { 1 0 10303 214 3 1 1 1 }'));
ENDSEC;

DATA;
#10=CONSTRUCTIVE_GEOMETRY_REPRESENTATION_RELATIONSHIP(
'supplemental geometry','',#34,#11);
#11=CONSTRUCTIVE_GEOMETRY_REPRESENTATION('supplemental geometry',(#254,
#255,#256),#387);
#12=GEOMETRICALLY_BOUNDED_WIREFRAME_SHAPE_REPRESENTATION(
'462.1-0100-005A0-XM-None',(#35),#387);
#13=PROPERTY_DEFINITION_REPRESENTATION(#17,#15);
#14=PROPERTY_DEFINITION_REPRESENTATION(#18,#16);
#15=REPRESENTATION('',(#19),#387);
#16=REPRESENTATION('',(#20),#387);
#17=PROPERTY_DEFINITION('pmi validation property','',#25);
#18=PROPERTY_DEFINITION('pmi validation property','',#25);
#19=VALUE_REPRESENTATION_ITEM('number of annotations',COUNT_MEASURE(0.));
#20=VALUE_REPRESENTATION_ITEM('number of views',COUNT_MEASURE(0.));
#21=SHAPE_REPRESENTATION_RELATIONSHIP('None',
'relationship between 462.1-0100-005A0-XM-None and 462.1-0100-005A0-XM
-None',#34,#23);
#22=SHAPE_REPRESENTATION_RELATIONSHIP('None',
'relationship between 462.1-0100-005A0-XM-None and 462.1-0100-005A0-XM
-None',#34,#12);
#23=ADVANCED_BREP_SHAPE_REPRESENTATION('462.1-0100-005A0-XM-None',(#47,
#48),#387);
#24=SHAPE_DEFINITION_REPRESENTATION(#25,#34);
#25=PRODUCT_DEFINITION_SHAPE('','',#26);
#26=PRODUCT_DEFINITION(' ','',#28,#27);
#27=PRODUCT_DEFINITION_CONTEXT('part definition',#33,'design');
#28=PRODUCT_DEFINITION_FORMATION_WITH_SPECIFIED_SOURCE(' ',' ',#30,
 .NOT_KNOWN.);
#29=PRODUCT_RELATED_PRODUCT_CATEGORY('part','',(#30));
#30=PRODUCT('462.1-0100-005A0-XM','462.1-0100-005A0-XM',' ',(#31));
#31=PRODUCT_CONTEXT(' ',#33,'mechanical');
#32=APPLICATION_PROTOCOL_DEFINITION('international standard',
'automotive_design',2010,#33);
#33=APPLICATION_CONTEXT(
'core data for automotive mechanical design processes');
#34=SHAPE_REPRESENTATION('462.1-0100-005A0-XM-None',(#252),#387);
#35=GEOMETRIC_CURVE_SET('None',(#330,#331,#332,#333,#174,#175,#176,#177,
#178,#179,#180,#181,#182,#137));
#36=VERTEX_LOOP('',#127);
#37=SURFACE_STYLE_USAGE(.BOTH.,#39);
#38=SURFACE_STYLE_USAGE(.BOTH.,#40);
#39=SURFACE_SIDE_STYLE('',(#41));
#40=SURFACE_SIDE_STYLE('',(#42));
#41=SURFACE_STYLE_FILL_AREA(#43);
#42=SURFACE_STYLE_FILL_AREA(#44);
#43=FILL_AREA_STYLE('',(#45));
#44=FILL_AREA_STYLE('',(#46));
#45=FILL_AREA_STYLE_COLOUR('',#200);
#46=FILL_AREA_STYLE_COLOUR('',#201);
#47=MANIFOLD_SOLID_BREP('NOCUT',#49);
#48=MANIFOLD_SOLID_BREP('CUT',#50);
#49=CLOSED_SHELL('',(#72,#73,#74,#75,#76,#77,#78));
#50=CLOSED_SHELL('',(#79,#80,#81));
#51=TOROIDAL_SURFACE('',#268,1.5,1.);
#52=CYLINDRICAL_SURFACE('',#264,1.5);
#53=CYLINDRICAL_SURFACE('',#269,0.500000000000002);
#54=CYLINDRICAL_SURFACE('',#274,0.500000000000002);
#55=CONICAL_SURFACE('',#262,1.5,29.9999999999999);
#56=CONICAL_SURFACE('',#266,0.633974596215563,30.);
#57=CONICAL_SURFACE('',#273,0.500000000000003,65.);
#58=FACE_BOUND('',#90,.T.);
#59=FACE_BOUND('',#91,.T.);
#60=FACE_BOUND('',#92,.T.);
#61=FACE_BOUND('',#93,.T.);
#62=FACE_BOUND('',#94,.T.);
#63=FACE_BOUND('',#95,.T.);
#64=FACE_BOUND('',#96,.T.);
#65=FACE_BOUND('',#97,.T.);
#66=FACE_BOUND('',#98,.T.);
#67=FACE_BOUND('',#99,.T.);
#68=FACE_BOUND('',#36,.T.);
#69=FACE_BOUND('',#101,.T.);
#70=FACE_BOUND('',#102,.T.);
#71=FACE_BOUND('',#103,.T.);
#72=ADVANCED_FACE('',(#85),#82,.T.);
#73=ADVANCED_FACE('',(#86),#83,.F.);
#74=ADVANCED_FACE('',(#58,#59),#55,.T.);
#75=ADVANCED_FACE('',(#60,#61),#52,.T.);
#76=ADVANCED_FACE('',(#62,#63),#56,.T.);
#77=ADVANCED_FACE('',(#64,#65),#51,.F.);
#78=ADVANCED_FACE('',(#66,#67),#53,.T.);
#79=ADVANCED_FACE('',(#87),#84,.F.);
#80=ADVANCED_FACE('',(#68,#69),#57,.T.);
#81=ADVANCED_FACE('',(#70,#71),#54,.T.);
#82=PLANE('',#258);
#83=PLANE('',#260);
#84=PLANE('',#271);
#85=FACE_OUTER_BOUND('',#88,.T.);
#86=FACE_OUTER_BOUND('',#89,.T.);
#87=FACE_OUTER_BOUND('',#100,.T.);
#88=EDGE_LOOP('',(#104));
#89=EDGE_LOOP('',(#105));
#90=EDGE_LOOP('',(#106));
#91=EDGE_LOOP('',(#107));
#92=EDGE_LOOP('',(#108));
#93=EDGE_LOOP('',(#109));
#94=EDGE_LOOP('',(#110));
#95=EDGE_LOOP('',(#111));
#96=EDGE_LOOP('',(#112));
#97=EDGE_LOOP('',(#113));
#98=EDGE_LOOP('',(#114));
#99=EDGE_LOOP('',(#115));
#100=EDGE_LOOP('',(#116));
#101=EDGE_LOOP('',(#117));
#102=EDGE_LOOP('',(#118));
#103=EDGE_LOOP('',(#119));
#104=ORIENTED_EDGE('',*,*,#129,.T.);
#105=ORIENTED_EDGE('',*,*,#130,.F.);
#106=ORIENTED_EDGE('',*,*,#130,.T.);
#107=ORIENTED_EDGE('',*,*,#131,.F.);
#108=ORIENTED_EDGE('',*,*,#131,.T.);
#109=ORIENTED_EDGE('',*,*,#132,.F.);
#110=ORIENTED_EDGE('',*,*,#132,.T.);
#111=ORIENTED_EDGE('',*,*,#133,.F.);
#112=ORIENTED_EDGE('',*,*,#133,.T.);
#113=ORIENTED_EDGE('',*,*,#134,.F.);
#114=ORIENTED_EDGE('',*,*,#134,.T.);
#115=ORIENTED_EDGE('',*,*,#129,.F.);
#116=ORIENTED_EDGE('',*,*,#135,.F.);
#117=ORIENTED_EDGE('',*,*,#136,.T.);
#118=ORIENTED_EDGE('',*,*,#136,.F.);
#119=ORIENTED_EDGE('',*,*,#135,.T.);
#120=VERTEX_POINT('',#360);
#121=VERTEX_POINT('',#363);
#122=VERTEX_POINT('',#366);
#123=VERTEX_POINT('',#369);
#124=VERTEX_POINT('',#372);
#125=VERTEX_POINT('',#375);
#126=VERTEX_POINT('',#379);
#127=VERTEX_POINT('',#381);
#128=VERTEX_POINT('',#383);
#129=EDGE_CURVE('',#120,#120,#139,.T.);
#130=EDGE_CURVE('',#121,#121,#140,.T.);
#131=EDGE_CURVE('',#122,#122,#141,.T.);
#132=EDGE_CURVE('',#123,#123,#142,.T.);
#133=EDGE_CURVE('',#124,#124,#143,.T.);
#134=EDGE_CURVE('',#125,#125,#144,.T.);
#135=EDGE_CURVE('',#126,#126,#145,.T.);
#136=EDGE_CURVE('',#128,#128,#146,.T.);
#137=B_SPLINE_CURVE_WITH_KNOTS('CUTTING PART LINE',3,(#343,#344,#345,#346,
#347,#348,#349,#350,#351,#352,#353,#354,#355),.UNSPECIFIED.,.T.,.F.,(4,
3,3,3,4),(0.,0.440618449127491,0.49161324211568,0.953783022009676,1.),
 .UNSPECIFIED.);
#138=CIRCLE('Arc1',#253,1.);
#139=CIRCLE('',#257,0.500000000000003);
#140=CIRCLE('',#259,1.32679491924311);
#141=CIRCLE('',#261,1.5);
#142=CIRCLE('',#263,1.5);
#143=CIRCLE('',#265,0.633974596215563);
#144=CIRCLE('',#267,0.500000000000002);
#145=CIRCLE('',#270,0.500000000000002);
#146=CIRCLE('',#272,0.500000000000003);
#147=INVISIBILITY((#208,#209,#210,#211,#212,#213,#214,#215,#216));
#148=CURVE_STYLE('',#161,POSITIVE_LENGTH_MEASURE(0.18),#250);
#149=CURVE_STYLE('',#162,POSITIVE_LENGTH_MEASURE(0.18),#250);
#150=CURVE_STYLE('',#163,POSITIVE_LENGTH_MEASURE(0.18),#250);
#151=CURVE_STYLE('',#164,POSITIVE_LENGTH_MEASURE(0.18),#250);
#152=CURVE_STYLE('',#165,POSITIVE_LENGTH_MEASURE(0.18),#250);
#153=CURVE_STYLE('',#166,POSITIVE_LENGTH_MEASURE(0.18),#250);
#154=CURVE_STYLE('',#167,POSITIVE_LENGTH_MEASURE(0.18),#250);
#155=CURVE_STYLE('',#168,POSITIVE_LENGTH_MEASURE(0.18),#250);
#156=CURVE_STYLE('',#169,POSITIVE_LENGTH_MEASURE(0.18),#250);
#157=CURVE_STYLE('',#170,POSITIVE_LENGTH_MEASURE(0.18),#251);
#158=CURVE_STYLE('',#171,POSITIVE_LENGTH_MEASURE(0.18),#199);
#159=CURVE_STYLE('',#172,POSITIVE_LENGTH_MEASURE(0.18),#199);
#160=CURVE_STYLE('',#173,POSITIVE_LENGTH_MEASURE(0.18),#199);
#161=DRAUGHTING_PRE_DEFINED_CURVE_FONT('continuous');
#162=DRAUGHTING_PRE_DEFINED_CURVE_FONT('continuous');
#163=DRAUGHTING_PRE_DEFINED_CURVE_FONT('continuous');
#164=DRAUGHTING_PRE_DEFINED_CURVE_FONT('continuous');
#165=DRAUGHTING_PRE_DEFINED_CURVE_FONT('continuous');
#166=DRAUGHTING_PRE_DEFINED_CURVE_FONT('continuous');
#167=DRAUGHTING_PRE_DEFINED_CURVE_FONT('continuous');
#168=DRAUGHTING_PRE_DEFINED_CURVE_FONT('continuous');
#169=DRAUGHTING_PRE_DEFINED_CURVE_FONT('continuous');
#170=DRAUGHTING_PRE_DEFINED_CURVE_FONT('continuous');
#171=DRAUGHTING_PRE_DEFINED_CURVE_FONT('continuous');
#172=DRAUGHTING_PRE_DEFINED_CURVE_FONT('continuous');
#173=DRAUGHTING_PRE_DEFINED_CURVE_FONT('continuous');
#174=TRIMMED_CURVE('Line1',#183,(PARAMETER_VALUE(0.)),(
PARAMETER_VALUE(1.)),.T.,.PARAMETER.);
#175=TRIMMED_CURVE('Line3',#184,(PARAMETER_VALUE(0.)),(
PARAMETER_VALUE(1.)),.T.,.PARAMETER.);
#176=TRIMMED_CURVE('Line6',#185,(PARAMETER_VALUE(0.)),(
PARAMETER_VALUE(1.)),.T.,.PARAMETER.);
#177=TRIMMED_CURVE('Line7',#186,(PARAMETER_VALUE(0.)),(
PARAMETER_VALUE(1.)),.T.,.PARAMETER.);
#178=TRIMMED_CURVE('Line8',#187,(PARAMETER_VALUE(0.)),(
PARAMETER_VALUE(1.)),.T.,.PARAMETER.);
#179=TRIMMED_CURVE('Line9',#188,(PARAMETER_VALUE(0.)),(
PARAMETER_VALUE(1.)),.T.,.PARAMETER.);
#180=TRIMMED_CURVE('Line10',#189,(PARAMETER_VALUE(0.)),(
PARAMETER_VALUE(1.)),.T.,.PARAMETER.);
#181=TRIMMED_CURVE('Line11',#190,(PARAMETER_VALUE(0.)),(
PARAMETER_VALUE(1.)),.T.,.PARAMETER.);
#182=TRIMMED_CURVE('Arc1',#138,(PARAMETER_VALUE(60.)),(
PARAMETER_VALUE(90.)),.T.,.PARAMETER.);
#183=LINE('Line1',#334,#191);
#184=LINE('Line3',#335,#192);
#185=LINE('Line6',#336,#193);
#186=LINE('Line7',#337,#194);
#187=LINE('Line8',#338,#195);
#188=LINE('Line9',#339,#196);
#189=LINE('Line10',#340,#197);
#190=LINE('Line11',#341,#198);
#191=VECTOR('',#277,27.7000440006454);
#192=VECTOR('',#278,2.99995599935465);
#193=VECTOR('',#279,4.7668461709225);
#194=VECTOR('',#280,0.551688959481249);
#195=VECTOR('',#281,5.);
#196=VECTOR('',#282,0.500000000000002);
#197=VECTOR('',#283,1.73205080756888);
#198=VECTOR('',#284,0.346410161513776);
#199=COLOUR_RGB('Medium Maroon',0.6,0.4,0.4);
#200=COLOUR_RGB('Medium Gray',0.501960784313725,0.501960784313725,0.501960784313725);
#201=COLOUR_RGB('Light Gray',0.8,0.8,0.8);
#202=PRESENTATION_LAYER_ASSIGNMENT('1','Layer 1',(#330,#331,#332,#333,#137,
#254,#255,#256,#47,#48));
#203=PRESENTATION_LAYER_ASSIGNMENT('40','Layer 40',(#174,#175,#176,#177,
#178,#179,#180,#181,#182));
#204=STYLED_ITEM('',(#223),#330);
#205=STYLED_ITEM('',(#224),#331);
#206=STYLED_ITEM('',(#225),#332);
#207=STYLED_ITEM('',(#226),#333);
#208=STYLED_ITEM('',(#227),#174);
#209=STYLED_ITEM('',(#228),#175);
#210=STYLED_ITEM('',(#229),#176);
#211=STYLED_ITEM('',(#230),#177);
#212=STYLED_ITEM('',(#231),#178);
#213=STYLED_ITEM('',(#232),#179);
#214=STYLED_ITEM('',(#233),#180);
#215=STYLED_ITEM('',(#234),#181);
#216=STYLED_ITEM('',(#235),#182);
#217=STYLED_ITEM('',(#236),#137);
#218=STYLED_ITEM('',(#237),#254);
#219=STYLED_ITEM('',(#238),#255);
#220=STYLED_ITEM('',(#239),#256);
#221=STYLED_ITEM('',(#240),#47);
#222=STYLED_ITEM('',(#241),#48);
#223=PRESENTATION_STYLE_ASSIGNMENT((#242));
#224=PRESENTATION_STYLE_ASSIGNMENT((#243));
#225=PRESENTATION_STYLE_ASSIGNMENT((#244));
#226=PRESENTATION_STYLE_ASSIGNMENT((#245));
#227=PRESENTATION_STYLE_ASSIGNMENT((#148));
#228=PRESENTATION_STYLE_ASSIGNMENT((#149));
#229=PRESENTATION_STYLE_ASSIGNMENT((#150));
#230=PRESENTATION_STYLE_ASSIGNMENT((#151));
#231=PRESENTATION_STYLE_ASSIGNMENT((#152));
#232=PRESENTATION_STYLE_ASSIGNMENT((#153));
#233=PRESENTATION_STYLE_ASSIGNMENT((#154));
#234=PRESENTATION_STYLE_ASSIGNMENT((#155));
#235=PRESENTATION_STYLE_ASSIGNMENT((#156));
#236=PRESENTATION_STYLE_ASSIGNMENT((#157));
#237=PRESENTATION_STYLE_ASSIGNMENT((#158));
#238=PRESENTATION_STYLE_ASSIGNMENT((#159));
#239=PRESENTATION_STYLE_ASSIGNMENT((#160));
#240=PRESENTATION_STYLE_ASSIGNMENT((#37));
#241=PRESENTATION_STYLE_ASSIGNMENT((#38));
#242=POINT_STYLE('',#246,POSITIVE_LENGTH_MEASURE(3.),#250);
#243=POINT_STYLE('',#247,POSITIVE_LENGTH_MEASURE(3.),#199);
#244=POINT_STYLE('',#248,POSITIVE_LENGTH_MEASURE(3.),#199);
#245=POINT_STYLE('',#249,POSITIVE_LENGTH_MEASURE(3.),#199);
#246=PRE_DEFINED_POINT_MARKER_SYMBOL('plus');
#247=PRE_DEFINED_POINT_MARKER_SYMBOL('plus');
#248=PRE_DEFINED_POINT_MARKER_SYMBOL('plus');
#249=PRE_DEFINED_POINT_MARKER_SYMBOL('plus');
#250=DRAUGHTING_PRE_DEFINED_COLOUR('white');
#251=DRAUGHTING_PRE_DEFINED_COLOUR('blue');
#252=AXIS2_PLACEMENT_3D('',#329,#275,#276);
#253=AXIS2_PLACEMENT_3D('',#342,#285,#286);
#254=AXIS2_PLACEMENT_3D('PCS',#356,#287,#288);
#255=AXIS2_PLACEMENT_3D('MCS',#357,#289,#290);
#256=AXIS2_PLACEMENT_3D('CIP',#358,#291,#292);
#257=AXIS2_PLACEMENT_3D('',#359,#293,#294);
#258=AXIS2_PLACEMENT_3D('',#361,#295,#296);
#259=AXIS2_PLACEMENT_3D('',#362,#297,#298);
#260=AXIS2_PLACEMENT_3D('',#364,#299,#300);
#261=AXIS2_PLACEMENT_3D('',#365,#301,#302);
#262=AXIS2_PLACEMENT_3D('',#367,#303,#304);
#263=AXIS2_PLACEMENT_3D('',#368,#305,#306);
#264=AXIS2_PLACEMENT_3D('',#370,#307,#308);
#265=AXIS2_PLACEMENT_3D('',#371,#309,#310);
#266=AXIS2_PLACEMENT_3D('',#373,#311,#312);
#267=AXIS2_PLACEMENT_3D('',#374,#313,#314);
#268=AXIS2_PLACEMENT_3D('',#376,#315,#316);
#269=AXIS2_PLACEMENT_3D('',#377,#317,#318);
#270=AXIS2_PLACEMENT_3D('',#378,#319,#320);
#271=AXIS2_PLACEMENT_3D('',#380,#321,#322);
#272=AXIS2_PLACEMENT_3D('',#382,#323,#324);
#273=AXIS2_PLACEMENT_3D('',#384,#325,#326);
#274=AXIS2_PLACEMENT_3D('',#385,#327,#328);
#275=DIRECTION('',(0.,0.,1.));
#276=DIRECTION('',(1.,0.,0.));
#277=DIRECTION('',(1.28256607777148E-16,0.,-1.));
#278=DIRECTION('',(1.48031907783179E-16,0.,-1.));
#279=DIRECTION('',(1.16452575226515E-16,0.,-1.));
#280=DIRECTION('',(-0.906307787036649,0.,-0.422618261740701));
#281=DIRECTION('',(0.,0.,1.));
#282=DIRECTION('',(1.,0.,0.));
#283=DIRECTION('',(-0.500000000000001,0.,-0.866025403784438));
#284=DIRECTION('',(-0.5,0.,0.866025403784438));
#285=DIRECTION('',(0.,-1.,0.));
#286=DIRECTION('',(0.,0.,1.));
#287=DIRECTION('',(0.,0.,1.));
#288=DIRECTION('',(1.,0.,0.));
#289=DIRECTION('',(0.,0.,1.));
#290=DIRECTION('',(1.,0.,0.));
#291=DIRECTION('',(0.,0.,1.));
#292=DIRECTION('',(1.,0.,0.));
#293=DIRECTION('',(0.,0.,-1.));
#294=DIRECTION('',(-1.,0.,0.));
#295=DIRECTION('',(0.,0.,-1.));
#296=DIRECTION('',(-1.,0.,0.));
#297=DIRECTION('',(0.,0.,-1.));
#298=DIRECTION('',(-1.,0.,0.));
#299=DIRECTION('',(0.,0.,-1.));
#300=DIRECTION('',(-1.,0.,0.));
#301=DIRECTION('',(0.,0.,-1.));
#302=DIRECTION('',(-1.,0.,0.));
#303=DIRECTION('',(0.,0.,-1.));
#304=DIRECTION('',(-1.,0.,5.99368634104767E-17));
#305=DIRECTION('',(0.,0.,-1.));
#306=DIRECTION('',(-1.,0.,0.));
#307=DIRECTION('',(0.,0.,-1.));
#308=DIRECTION('',(-1.,0.,0.));
#309=DIRECTION('',(0.,0.,-1.));
#310=DIRECTION('',(-1.,0.,0.));
#311=DIRECTION('',(0.,0.,1.));
#312=DIRECTION('',(1.,0.,6.00266700910126E-17));
#313=DIRECTION('',(0.,0.,-1.));
#314=DIRECTION('',(-1.,0.,0.));
#315=DIRECTION('',(0.,0.,-1.));
#316=DIRECTION('',(-1.,0.,0.));
#317=DIRECTION('',(0.,0.,-1.));
#318=DIRECTION('',(-1.,0.,0.));
#319=DIRECTION('',(0.,0.,-1.));
#320=DIRECTION('',(-1.,0.,0.));
#321=DIRECTION('',(0.,0.,-1.));
#322=DIRECTION('',(-1.,0.,0.));
#323=DIRECTION('',(0.,0.,-1.));
#324=DIRECTION('',(-1.,0.,0.));
#325=DIRECTION('',(0.,0.,1.));
#326=DIRECTION('',(1.,0.,-9.70471540799346E-18));
#327=DIRECTION('',(0.,0.,-1.));
#328=DIRECTION('',(-1.,0.,0.));
#329=CARTESIAN_POINT('',(0.,0.,0.));
#330=CARTESIAN_POINT('CRP',(0.500000000000003,0.,-37.7668461709225));
#331=CARTESIAN_POINT('',(0.,0.,0.));
#332=CARTESIAN_POINT('',(0.,0.,-28.0000440006454));
#333=CARTESIAN_POINT('',(0.,0.,-38.));
#334=CARTESIAN_POINT('',(1.5,0.,-0.3));
#335=CARTESIAN_POINT('',(0.500000000000002,0.,-30.0000440006454));
#336=CARTESIAN_POINT('',(0.500000000000002,0.,-33.));
#337=CARTESIAN_POINT('',(0.500000000000003,0.,-37.7668461709225));
#338=CARTESIAN_POINT('',(0.,0.,-38.));
#339=CARTESIAN_POINT('',(0.,0.,-33.));
#340=CARTESIAN_POINT('',(1.5,0.,-28.0000440006454));
#341=CARTESIAN_POINT('',(1.5,0.,-0.3));
#342=CARTESIAN_POINT('',(1.5,0.,-30.0000440006454));
#343=CARTESIAN_POINT('',(0.500000000000002,0.,-33.));
#344=CARTESIAN_POINT('',(0.500000000000002,0.,-34.5889487236408));
#345=CARTESIAN_POINT('',(0.500000000000002,0.,-36.1778974472817));
#346=CARTESIAN_POINT('',(0.500000000000003,0.,-37.7668461709225));
#347=CARTESIAN_POINT('',(0.333333333333335,0.,-37.8445641139483));
#348=CARTESIAN_POINT('',(0.166666666666668,0.,-37.9222820569742));
#349=CARTESIAN_POINT('',(0.,0.,-38.));
#350=CARTESIAN_POINT('',(0.,0.,-36.3333333333333));
#351=CARTESIAN_POINT('',(0.,0.,-34.6666666666667));
#352=CARTESIAN_POINT('',(0.,0.,-33.));
#353=CARTESIAN_POINT('',(0.166666666666667,0.,-33.));
#354=CARTESIAN_POINT('',(0.333333333333335,0.,-33.));
#355=CARTESIAN_POINT('',(0.500000000000002,0.,-33.));
#356=CARTESIAN_POINT('',(0.,0.,0.));
#357=CARTESIAN_POINT('',(0.,0.,-28.0000440006454));
#358=CARTESIAN_POINT('',(0.,0.,-38.));
#359=CARTESIAN_POINT('',(0.,0.,-33.));
#360=CARTESIAN_POINT('',(-0.500000000000003,0.,-33.));
#361=CARTESIAN_POINT('',(0.,0.,-33.));
#362=CARTESIAN_POINT('',(0.,0.,5.42101086242752E-17));
#363=CARTESIAN_POINT('',(-1.32679491924311,0.,5.42101086242752E-17));
#364=CARTESIAN_POINT('',(0.,0.,5.42101086242752E-17));
#365=CARTESIAN_POINT('',(0.,0.,-0.300000000000002));
#366=CARTESIAN_POINT('',(-1.5,0.,-0.300000000000002));
#367=CARTESIAN_POINT('',(0.,0.,-0.300000000000002));
#368=CARTESIAN_POINT('',(0.,0.,-28.0000440006454));
#369=CARTESIAN_POINT('',(-1.5,0.,-28.0000440006454));
#370=CARTESIAN_POINT('',(0.,0.,0.));
#371=CARTESIAN_POINT('',(0.,0.,-29.5000440006454));
#372=CARTESIAN_POINT('',(-0.633974596215563,0.,-29.5000440006454));
#373=CARTESIAN_POINT('',(0.,0.,-29.5000440006454));
#374=CARTESIAN_POINT('',(0.,0.,-30.0000440006454));
#375=CARTESIAN_POINT('',(-0.500000000000002,0.,-30.0000440006454));
#376=CARTESIAN_POINT('',(0.,0.,-30.0000440006454));
#377=CARTESIAN_POINT('',(0.,0.,0.));
#378=CARTESIAN_POINT('',(0.,0.,-33.));
#379=CARTESIAN_POINT('',(-0.500000000000002,0.,-33.));
#380=CARTESIAN_POINT('',(0.,0.,-33.));
#381=CARTESIAN_POINT('',(1.0842021724855E-16,0.,-38.));
#382=CARTESIAN_POINT('',(0.,0.,-37.7668461709225));
#383=CARTESIAN_POINT('',(-0.500000000000003,0.,-37.7668461709225));
#384=CARTESIAN_POINT('',(0.,0.,-37.7668461709225));
#385=CARTESIAN_POINT('',(0.,0.,0.));
#386=MECHANICAL_DESIGN_GEOMETRIC_PRESENTATION_REPRESENTATION('',(#204,#205,
#206,#207,#208,#209,#210,#211,#212,#213,#214,#215,#216,#217,#218,#219,#220,
#221,#222),#387);
#387=(
GEOMETRIC_REPRESENTATION_CONTEXT(3)
GLOBAL_UNCERTAINTY_ASSIGNED_CONTEXT((#388))
GLOBAL_UNIT_ASSIGNED_CONTEXT((#394,#390,#389))
REPRESENTATION_CONTEXT('462','TOP_LEVEL_ASSEMBLY_PART')
);
#388=UNCERTAINTY_MEASURE_WITH_UNIT(LENGTH_MEASURE(2.E-5),#394,
'DISTANCE_ACCURACY_VALUE','Maximum Tolerance applied to model');
#389=(
NAMED_UNIT(*)
SI_UNIT($,.STERADIAN.)
SOLID_ANGLE_UNIT()
);
#390=(
CONVERSION_BASED_UNIT('DEGREE',#392)
NAMED_UNIT(#391)
PLANE_ANGLE_UNIT()
);
#391=DIMENSIONAL_EXPONENTS(0.,0.,0.,0.,0.,0.,0.);
#392=PLANE_ANGLE_MEASURE_WITH_UNIT(PLANE_ANGLE_MEASURE(0.0174532925),#393);
#393=(
NAMED_UNIT(*)
PLANE_ANGLE_UNIT()
SI_UNIT($,.RADIAN.)
);
#394=(
LENGTH_UNIT()
NAMED_UNIT(*)
SI_UNIT(.MILLI.,.METRE.)
);
ENDSEC;
END-ISO-10303-21;
