ISO-10303-21;
HEADER;
/* Generated by software containing ST-Developer
 * from STEP Tools, Inc. (www.steptools.com) 
 */
/* OPTION: using custom schema-name function */

FILE_DESCRIPTION(
/* description */ (''),
/* implementation_level */ '2;1');

FILE_NAME(
/* name */ 'TOOL.STP',
/* time_stamp */ '2024-12-09T11:44:17+01:00',
/* author */ (''),
/* organization */ ('SMS'),
/* preprocessor_version */ 'ST-DEVELOPER v16.7',
/* originating_system */ 'SIEMENS PLM Software NX 12.0',
/* authorisation */ '');

FILE_SCHEMA (('AUTOMOTIVE_DESIGN { 1 0 10303 214 3 1 1 1 }'));
ENDSEC;

DATA;
#10=CONSTRUCTIVE_GEOMETRY_REPRESENTATION_RELATIONSHIP(
'supplemental geometry','',#26,#11);
#11=CONSTRUCTIVE_GEOMETRY_REPRESENTATION('supplemental geometry',(#165,
#166,#167),#287);
#12=GEOMETRICALLY_BOUNDED_WIREFRAME_SHAPE_REPRESENTATION('Tool-None',(#27),
#287);
#13=SHAPE_REPRESENTATION_RELATIONSHIP('None',
'relationship between Tool-None and Tool-None',#26,#15);
#14=SHAPE_REPRESENTATION_RELATIONSHIP('None',
'relationship between Tool-None and Tool-None',#26,#12);
#15=ADVANCED_BREP_SHAPE_REPRESENTATION('Tool-None',(#40,#41),#287);
#16=SHAPE_DEFINITION_REPRESENTATION(#17,#26);
#17=PRODUCT_DEFINITION_SHAPE('','',#18);
#18=PRODUCT_DEFINITION(' ','',#20,#19);
#19=PRODUCT_DEFINITION_CONTEXT('part definition',#25,'design');
#20=PRODUCT_DEFINITION_FORMATION_WITH_SPECIFIED_SOURCE(' ',' ',#22,
 .NOT_KNOWN.);
#21=PRODUCT_RELATED_PRODUCT_CATEGORY('part','',(#22));
#22=PRODUCT('Tool','Tool',' ',(#23));
#23=PRODUCT_CONTEXT(' ',#25,'mechanical');
#24=APPLICATION_PROTOCOL_DEFINITION('international standard',
'automotive_design',2010,#25);
#25=APPLICATION_CONTEXT(
'core data for automotive mechanical design processes');
#26=SHAPE_REPRESENTATION('Tool-None',(#164),#287);
#27=GEOMETRIC_CURVE_SET('None',(#222,#223,#224,#131));
#28=SPHERICAL_SURFACE('',#180,4.05);
#29=B_SPLINE_CURVE_WITH_KNOTS('',3,(#263,#264,#265,#266,#267,#268,#269,
#270,#271,#272,#273,#274,#275,#276,#277,#278,#279,#280),.UNSPECIFIED.,.T.,
 .F.,(2,2,2,2,2,2,2,2,2,2,2),(-0.125,0.,0.125,0.25,0.375,0.5,0.625,0.75,
0.875,1.,1.125),.UNSPECIFIED.);
#30=SURFACE_STYLE_USAGE(.BOTH.,#32);
#31=SURFACE_STYLE_USAGE(.BOTH.,#33);
#32=SURFACE_SIDE_STYLE('',(#34));
#33=SURFACE_SIDE_STYLE('',(#35));
#34=SURFACE_STYLE_FILL_AREA(#36);
#35=SURFACE_STYLE_FILL_AREA(#37);
#36=FILL_AREA_STYLE('',(#38));
#37=FILL_AREA_STYLE('',(#39));
#38=FILL_AREA_STYLE_COLOUR('',#162);
#39=FILL_AREA_STYLE_COLOUR('',#163);
#40=MANIFOLD_SOLID_BREP('NOCUT',#42);
#41=MANIFOLD_SOLID_BREP('CUT',#43);
#42=CLOSED_SHELL('',(#59,#60,#61,#62));
#43=CLOSED_SHELL('',(#63,#64,#65,#66,#67));
#44=CONICAL_SURFACE('',#174,5.2,45.0000000000001);
#45=CONICAL_SURFACE('',#179,5.94524538167588,3.);
#46=CONICAL_SURFACE('',#181,6.,2.99999999999977);
#47=CYLINDRICAL_SURFACE('',#171,6.);
#48=CYLINDRICAL_SURFACE('',#177,6.);
#49=FACE_BOUND('',#76,.T.);
#50=FACE_BOUND('',#77,.T.);
#51=FACE_BOUND('',#79,.T.);
#52=FACE_BOUND('',#80,.T.);
#53=FACE_BOUND('',#81,.T.);
#54=FACE_BOUND('',#82,.T.);
#55=FACE_BOUND('',#83,.T.);
#56=FACE_BOUND('',#84,.T.);
#57=FACE_BOUND('',#86,.T.);
#58=FACE_BOUND('',#87,.T.);
#59=ADVANCED_FACE('',(#71),#68,.T.);
#60=ADVANCED_FACE('',(#49,#50),#47,.T.);
#61=ADVANCED_FACE('',(#72),#69,.F.);
#62=ADVANCED_FACE('',(#51,#52),#44,.T.);
#63=ADVANCED_FACE('',(#53,#54),#48,.T.);
#64=ADVANCED_FACE('',(#55,#56),#45,.T.);
#65=ADVANCED_FACE('',(#73),#28,.T.);
#66=ADVANCED_FACE('',(#57,#58),#46,.T.);
#67=ADVANCED_FACE('',(#74),#70,.T.);
#68=PLANE('',#169);
#69=PLANE('',#173);
#70=PLANE('',#182);
#71=FACE_OUTER_BOUND('',#75,.T.);
#72=FACE_OUTER_BOUND('',#78,.T.);
#73=FACE_OUTER_BOUND('',#85,.T.);
#74=FACE_OUTER_BOUND('',#88,.T.);
#75=EDGE_LOOP('',(#89));
#76=EDGE_LOOP('',(#90));
#77=EDGE_LOOP('',(#91));
#78=EDGE_LOOP('',(#92));
#79=EDGE_LOOP('',(#93));
#80=EDGE_LOOP('',(#94));
#81=EDGE_LOOP('',(#95));
#82=EDGE_LOOP('',(#96));
#83=EDGE_LOOP('',(#97));
#84=EDGE_LOOP('',(#98));
#85=EDGE_LOOP('',(#99));
#86=EDGE_LOOP('',(#100));
#87=EDGE_LOOP('',(#101));
#88=EDGE_LOOP('',(#102));
#89=ORIENTED_EDGE('',*,*,#110,.T.);
#90=ORIENTED_EDGE('',*,*,#111,.T.);
#91=ORIENTED_EDGE('',*,*,#110,.F.);
#92=ORIENTED_EDGE('',*,*,#112,.T.);
#93=ORIENTED_EDGE('',*,*,#111,.F.);
#94=ORIENTED_EDGE('',*,*,#112,.F.);
#95=ORIENTED_EDGE('',*,*,#113,.T.);
#96=ORIENTED_EDGE('',*,*,#114,.F.);
#97=ORIENTED_EDGE('',*,*,#115,.T.);
#98=ORIENTED_EDGE('',*,*,#116,.F.);
#99=ORIENTED_EDGE('',*,*,#115,.F.);
#100=ORIENTED_EDGE('',*,*,#116,.T.);
#101=ORIENTED_EDGE('',*,*,#113,.F.);
#102=ORIENTED_EDGE('',*,*,#114,.T.);
#103=VERTEX_POINT('',#247);
#104=VERTEX_POINT('',#250);
#105=VERTEX_POINT('',#253);
#106=VERTEX_POINT('',#257);
#107=VERTEX_POINT('',#259);
#108=VERTEX_POINT('',#262);
#109=VERTEX_POINT('',#281);
#110=EDGE_CURVE('',#103,#103,#117,.T.);
#111=EDGE_CURVE('',#104,#104,#118,.T.);
#112=EDGE_CURVE('',#105,#105,#119,.T.);
#113=EDGE_CURVE('',#106,#106,#120,.T.);
#114=EDGE_CURVE('',#107,#107,#121,.T.);
#115=EDGE_CURVE('',#108,#108,#122,.T.);
#116=EDGE_CURVE('',#109,#109,#29,.T.);
#117=CIRCLE('',#168,6.);
#118=CIRCLE('',#170,6.);
#119=CIRCLE('',#172,5.2);
#120=CIRCLE('',#175,6.);
#121=CIRCLE('',#176,6.);
#122=CIRCLE('',#178,4.04444961575602);
#123=CURVE_STYLE('',#127,POSITIVE_LENGTH_MEASURE(0.18),#134);
#124=CURVE_STYLE('',#128,POSITIVE_LENGTH_MEASURE(0.13),#161);
#125=CURVE_STYLE('',#129,POSITIVE_LENGTH_MEASURE(0.18),#160);
#126=CURVE_STYLE('',#130,POSITIVE_LENGTH_MEASURE(0.18),#160);
#127=DRAUGHTING_PRE_DEFINED_CURVE_FONT('continuous');
#128=DRAUGHTING_PRE_DEFINED_CURVE_FONT('continuous');
#129=DRAUGHTING_PRE_DEFINED_CURVE_FONT('continuous');
#130=DRAUGHTING_PRE_DEFINED_CURVE_FONT('continuous');
#131=TRIMMED_CURVE('CUTTING PART LINE',#132,(PARAMETER_VALUE(0.)),(
PARAMETER_VALUE(1.)),.T.,.PARAMETER.);
#132=(
BOUNDED_CURVE()
B_SPLINE_CURVE(3,(#225,#226,#227,#228,#229,#230,#231,#232,#233,#234,#235,
#236,#237,#238,#239,#240,#241,#242),.UNSPECIFIED.,.T.,.F.)
B_SPLINE_CURVE_WITH_KNOTS((4,3,3,3,3,2,4),(0.,0.00969608131913738,0.0745870198984444,
0.529364347782667,0.595873965079382,0.988699247005917,1.),.UNSPECIFIED.)
CURVE()
GEOMETRIC_REPRESENTATION_ITEM()
RATIONAL_B_SPLINE_CURVE((1.,1.,1.,1.,1.,1.,1.,1.,1.,1.,0.816916247341526,
0.816916247341526,1.,1.,1.,1.,1.,1.))
REPRESENTATION_ITEM('CUTTING PART LINE')
);
#133=DRAUGHTING_PRE_DEFINED_COLOUR('white');
#134=DRAUGHTING_PRE_DEFINED_COLOUR('blue');
#135=PRESENTATION_LAYER_ASSIGNMENT('1','Layer 1',(#222,#223,#224,#131,#165,
#166,#167,#40,#41));
#136=STYLED_ITEM('',(#145),#222);
#137=STYLED_ITEM('',(#146),#223);
#138=STYLED_ITEM('',(#147),#224);
#139=STYLED_ITEM('',(#148),#131);
#140=STYLED_ITEM('',(#149),#165);
#141=STYLED_ITEM('',(#150),#166);
#142=STYLED_ITEM('',(#151),#167);
#143=STYLED_ITEM('',(#152),#40);
#144=STYLED_ITEM('',(#153),#41);
#145=PRESENTATION_STYLE_ASSIGNMENT((#154));
#146=PRESENTATION_STYLE_ASSIGNMENT((#155));
#147=PRESENTATION_STYLE_ASSIGNMENT((#156));
#148=PRESENTATION_STYLE_ASSIGNMENT((#123));
#149=PRESENTATION_STYLE_ASSIGNMENT((#124));
#150=PRESENTATION_STYLE_ASSIGNMENT((#125));
#151=PRESENTATION_STYLE_ASSIGNMENT((#126));
#152=PRESENTATION_STYLE_ASSIGNMENT((#30));
#153=PRESENTATION_STYLE_ASSIGNMENT((#31));
#154=POINT_STYLE('',#157,POSITIVE_LENGTH_MEASURE(3.),#160);
#155=POINT_STYLE('',#158,POSITIVE_LENGTH_MEASURE(3.),#133);
#156=POINT_STYLE('',#159,POSITIVE_LENGTH_MEASURE(3.),#160);
#157=PRE_DEFINED_POINT_MARKER_SYMBOL('plus');
#158=PRE_DEFINED_POINT_MARKER_SYMBOL('plus');
#159=PRE_DEFINED_POINT_MARKER_SYMBOL('plus');
#160=COLOUR_RGB('Medium Maroon',0.6,0.4,0.4);
#161=COLOUR_RGB('Silver Gray',0.6,0.6,0.6);
#162=COLOUR_RGB('TLS_NOCUT',0.498023956664378,0.498023956664378,0.498023956664378);
#163=COLOUR_RGB('TLS_CUT',0.8,0.8,0.8);
#164=AXIS2_PLACEMENT_3D('',#221,#183,#184);
#165=AXIS2_PLACEMENT_3D('PCS',#243,#185,#186);
#166=AXIS2_PLACEMENT_3D('MCS',#244,#187,#188);
#167=AXIS2_PLACEMENT_3D('CIP',#245,#189,#190);
#168=AXIS2_PLACEMENT_3D('',#246,#191,#192);
#169=AXIS2_PLACEMENT_3D('',#248,#193,#194);
#170=AXIS2_PLACEMENT_3D('',#249,#195,#196);
#171=AXIS2_PLACEMENT_3D('',#251,#197,#198);
#172=AXIS2_PLACEMENT_3D('',#252,#199,#200);
#173=AXIS2_PLACEMENT_3D('',#254,#201,#202);
#174=AXIS2_PLACEMENT_3D('',#255,#203,#204);
#175=AXIS2_PLACEMENT_3D('',#256,#205,#206);
#176=AXIS2_PLACEMENT_3D('',#258,#207,#208);
#177=AXIS2_PLACEMENT_3D('',#260,#209,#210);
#178=AXIS2_PLACEMENT_3D('',#261,#211,#212);
#179=AXIS2_PLACEMENT_3D('',#282,#213,#214);
#180=AXIS2_PLACEMENT_3D('',#283,#215,#216);
#181=AXIS2_PLACEMENT_3D('',#284,#217,#218);
#182=AXIS2_PLACEMENT_3D('',#285,#219,#220);
#183=DIRECTION('',(0.,0.,1.));
#184=DIRECTION('',(1.,0.,0.));
#185=DIRECTION('',(0.,0.,1.));
#186=DIRECTION('',(1.,0.,0.));
#187=DIRECTION('',(0.,0.,1.));
#188=DIRECTION('',(1.,0.,0.));
#189=DIRECTION('',(0.,0.,1.));
#190=DIRECTION('',(1.,0.,0.));
#191=DIRECTION('',(0.,0.,-1.));
#192=DIRECTION('',(-1.,0.,0.));
#193=DIRECTION('',(0.,0.,-1.));
#194=DIRECTION('',(-1.,0.,0.));
#195=DIRECTION('',(0.,0.,-1.));
#196=DIRECTION('',(-1.,0.,0.));
#197=DIRECTION('',(0.,0.,1.));
#198=DIRECTION('',(1.,0.,0.));
#199=DIRECTION('',(0.,0.,1.));
#200=DIRECTION('',(-1.,0.,0.));
#201=DIRECTION('',(0.,0.,-1.));
#202=DIRECTION('',(-1.,0.,0.));
#203=DIRECTION('',(0.,0.,-1.));
#204=DIRECTION('',(-1.,0.,0.));
#205=DIRECTION('',(0.,0.,1.));
#206=DIRECTION('',(1.,0.,0.));
#207=DIRECTION('',(0.,0.,1.));
#208=DIRECTION('',(1.,0.,0.));
#209=DIRECTION('',(0.,0.,1.));
#210=DIRECTION('',(1.,0.,0.));
#211=DIRECTION('',(0.,1.07314696530712E-18,1.));
#212=DIRECTION('',(0.,1.,0.));
#213=DIRECTION('',(0.,1.07314696530712E-18,1.));
#214=DIRECTION('',(0.,1.,4.75649304815063E-16));
#215=DIRECTION('',(0.,6.23054869226748E-17,1.));
#216=DIRECTION('',(0.,1.,0.));
#217=DIRECTION('',(0.,0.,1.));
#218=DIRECTION('',(1.,0.,-4.75203405373942E-16));
#219=DIRECTION('',(0.,0.,1.));
#220=DIRECTION('',(1.,0.,0.));
#221=CARTESIAN_POINT('',(0.,0.,0.));
#222=CARTESIAN_POINT('',(0.,0.,-45.));
#223=CARTESIAN_POINT('CRP',(-4.,0.,-125.));
#224=CARTESIAN_POINT('CIP_DCSYS',(0.,0.,-125.));
#225=CARTESIAN_POINT('',(-6.,0.,-83.8965271452074));
#226=CARTESIAN_POINT('',(-6.,0.,-83.5976847634716));
#227=CARTESIAN_POINT('',(-6.,0.,-83.2988423817358));
#228=CARTESIAN_POINT('',(-6.,0.,-83.));
#229=CARTESIAN_POINT('',(-4.,0.,-83.));
#230=CARTESIAN_POINT('',(-2.,0.,-83.));
#231=CARTESIAN_POINT('',(0.,0.,-83.));
#232=CARTESIAN_POINT('',(0.,0.,-97.0166666666667));
#233=CARTESIAN_POINT('',(0.,0.,-111.033333333333));
#234=CARTESIAN_POINT('',(7.65710411166883E-15,0.,-125.05));
#235=CARTESIAN_POINT('',(-2.2750892278387,0.,-125.05));
#236=CARTESIAN_POINT('',(-3.92538064547904,0.,-123.483931919906));
#237=CARTESIAN_POINT('',(-4.04444961485884,0.,-121.211960639903));
#238=CARTESIAN_POINT('',(-4.67809391672053,0.,-109.121307104681));
#239=CARTESIAN_POINT('',(-5.31173821947926,0.,-97.0306535523407));
#240=CARTESIAN_POINT('',(-5.96357583377306,0.,-84.5921774549185));
#241=CARTESIAN_POINT('',(-5.98177130164605,0.,-84.2443514301378));
#242=CARTESIAN_POINT('',(-6.,0.,-83.8965271452066));
#243=CARTESIAN_POINT('',(0.,0.,0.));
#244=CARTESIAN_POINT('',(0.,0.,-45.));
#245=CARTESIAN_POINT('',(0.,0.,-125.));
#246=CARTESIAN_POINT('',(0.,0.,-83.));
#247=CARTESIAN_POINT('',(-6.,0.,-83.));
#248=CARTESIAN_POINT('',(0.,0.,-83.));
#249=CARTESIAN_POINT('',(0.,0.,-0.799999999999999));
#250=CARTESIAN_POINT('',(-6.,0.,-0.799999999999999));
#251=CARTESIAN_POINT('',(0.,0.,20.9080749503476));
#252=CARTESIAN_POINT('',(0.,0.,0.));
#253=CARTESIAN_POINT('',(-5.2,0.,0.));
#254=CARTESIAN_POINT('',(0.,6.,0.));
#255=CARTESIAN_POINT('',(0.,0.,0.));
#256=CARTESIAN_POINT('',(0.,0.,-83.8965271452066));
#257=CARTESIAN_POINT('',(6.,0.,-83.8965271452066));
#258=CARTESIAN_POINT('',(0.,0.,-83.));
#259=CARTESIAN_POINT('',(6.,0.,-83.));
#260=CARTESIAN_POINT('',(0.,0.,20.9080749503476));
#261=CARTESIAN_POINT('',(0.,-4.31533435113899E-17,-121.211960622784));
#262=CARTESIAN_POINT('',(0.,4.04444961575602,-121.211960622784));
#263=CARTESIAN_POINT('',(5.94531390493815,-1.55647954058658,-84.9400000000001));
#264=CARTESIAN_POINT('',(5.94531390493815,1.55647954058658,-84.94));
#265=CARTESIAN_POINT('',(5.30456901639133,3.10337454053755,-84.94));
#266=CARTESIAN_POINT('',(3.10337454053755,5.30456901639133,-84.94));
#267=CARTESIAN_POINT('',(1.55647954058658,5.94531390493815,-84.94));
#268=CARTESIAN_POINT('',(-1.55647954058658,5.94531390493815,-84.94));
#269=CARTESIAN_POINT('',(-3.10337454053755,5.30456901639133,-84.94));
#270=CARTESIAN_POINT('',(-5.30456901639133,3.10337454053755,-84.94));
#271=CARTESIAN_POINT('',(-5.94531390493815,1.55647954058658,-84.94));
#272=CARTESIAN_POINT('',(-5.94531390493815,-1.55647954058658,-84.94));
#273=CARTESIAN_POINT('',(-5.30456901639133,-3.10337454053755,-84.94));
#274=CARTESIAN_POINT('',(-3.10337454053755,-5.30456901639133,-84.94));
#275=CARTESIAN_POINT('',(-1.55647954058658,-5.94531390493815,-84.94));
#276=CARTESIAN_POINT('',(1.55647954058658,-5.94531390493815,-84.94));
#277=CARTESIAN_POINT('',(3.10337454053755,-5.30456901639133,-84.94));
#278=CARTESIAN_POINT('',(5.30456901639133,-3.10337454053755,-84.94));
#279=CARTESIAN_POINT('',(5.94531390493815,-1.55647954058658,-84.9400000000001));
#280=CARTESIAN_POINT('',(5.94531390493815,1.55647954058658,-84.94));
#281=CARTESIAN_POINT('',(5.9453482135881,-1.27627958954994E-15,-84.94));
#282=CARTESIAN_POINT('',(0.,-4.23100725194097E-18,-84.9426167978121));
#283=CARTESIAN_POINT('',(0.,0.,-121.));
#284=CARTESIAN_POINT('',(0.,0.,-83.8965271452066));
#285=CARTESIAN_POINT('',(0.,0.,-83.));
#286=MECHANICAL_DESIGN_GEOMETRIC_PRESENTATION_REPRESENTATION('',(#136,#137,
#138,#139,#140,#141,#142,#143,#144),#287);
#287=(
GEOMETRIC_REPRESENTATION_CONTEXT(3)
GLOBAL_UNCERTAINTY_ASSIGNED_CONTEXT((#288))
GLOBAL_UNIT_ASSIGNED_CONTEXT((#294,#290,#289))
REPRESENTATION_CONTEXT('TOOL','TOP_LEVEL_ASSEMBLY_PART')
);
#288=UNCERTAINTY_MEASURE_WITH_UNIT(LENGTH_MEASURE(0.0508),#294,
'DISTANCE_ACCURACY_VALUE','Maximum Tolerance applied to model');
#289=(
NAMED_UNIT(*)
SI_UNIT($,.STERADIAN.)
SOLID_ANGLE_UNIT()
);
#290=(
CONVERSION_BASED_UNIT('DEGREE',#292)
NAMED_UNIT(#291)
PLANE_ANGLE_UNIT()
);
#291=DIMENSIONAL_EXPONENTS(0.,0.,0.,0.,0.,0.,0.);
#292=PLANE_ANGLE_MEASURE_WITH_UNIT(PLANE_ANGLE_MEASURE(0.0174532925),#293);
#293=(
NAMED_UNIT(*)
PLANE_ANGLE_UNIT()
SI_UNIT($,.RADIAN.)
);
#294=(
LENGTH_UNIT()
NAMED_UNIT(*)
SI_UNIT(.MILLI.,.METRE.)
);
ENDSEC;
END-ISO-10303-21;
