ISO-10303-21;
HEADER;
/* Generated by software containing ST-Developer
 * from STEP Tools, Inc. (www.steptools.com) 
 */
/* OPTION: using custom schema-name function */

FILE_DESCRIPTION(
/* description */ (''),
/* implementation_level */ '2;1');

FILE_NAME(
/* name */ 'TOOL.STP',
/* time_stamp */ '2024-12-09T11:33:15+01:00',
/* author */ (''),
/* organization */ ('SMS'),
/* preprocessor_version */ 'ST-DEVELOPER v16.7',
/* originating_system */ 'SIEMENS PLM Software NX 12.0',
/* authorisation */ '');

FILE_SCHEMA (('AUTOMOTIVE_DESIGN { 1 0 10303 214 3 1 1 1 }'));
ENDSEC;

DATA;
#10=CONSTRUCTIVE_GEOMETRY_REPRESENTATION_RELATIONSHIP(
'supplemental geometry','',#26,#11);
#11=CONSTRUCTIVE_GEOMETRY_REPRESENTATION('supplemental geometry',(#165,
#166,#167),#284);
#12=GEOMETRICALLY_BOUNDED_WIREFRAME_SHAPE_REPRESENTATION('Tool-None',(#27),
#284);
#13=SHAPE_REPRESENTATION_RELATIONSHIP('None',
'relationship between Tool-None and Tool-None',#26,#15);
#14=SHAPE_REPRESENTATION_RELATIONSHIP('None',
'relationship between Tool-None and Tool-None',#26,#12);
#15=ADVANCED_BREP_SHAPE_REPRESENTATION('Tool-None',(#40,#41),#284);
#16=SHAPE_DEFINITION_REPRESENTATION(#17,#26);
#17=PRODUCT_DEFINITION_SHAPE('','',#18);
#18=PRODUCT_DEFINITION(' ','',#20,#19);
#19=PRODUCT_DEFINITION_CONTEXT('part definition',#25,'design');
#20=PRODUCT_DEFINITION_FORMATION_WITH_SPECIFIED_SOURCE(' ',' ',#22,
 .NOT_KNOWN.);
#21=PRODUCT_RELATED_PRODUCT_CATEGORY('part','',(#22));
#22=PRODUCT('Tool','Tool',' ',(#23));
#23=PRODUCT_CONTEXT(' ',#25,'mechanical');
#24=APPLICATION_PROTOCOL_DEFINITION('international standard',
'automotive_design',2010,#25);
#25=APPLICATION_CONTEXT(
'core data for automotive mechanical design processes');
#26=SHAPE_REPRESENTATION('Tool-None',(#164),#284);
#27=GEOMETRIC_CURVE_SET('None',(#222,#223,#224,#131));
#28=SPHERICAL_SURFACE('',#182,2.55);
#29=B_SPLINE_CURVE_WITH_KNOTS('',3,(#259,#260,#261,#262,#263,#264,#265,
#266,#267,#268,#269,#270,#271,#272,#273,#274,#275,#276),.UNSPECIFIED.,.T.,
 .F.,(2,2,2,2,2,2,2,2,2,2,2),(-0.125,0.,0.125,0.25,0.375,0.5,0.625,0.75,
0.875,1.,1.125),.UNSPECIFIED.);
#30=SURFACE_STYLE_USAGE(.BOTH.,#32);
#31=SURFACE_STYLE_USAGE(.BOTH.,#33);
#32=SURFACE_SIDE_STYLE('',(#34));
#33=SURFACE_SIDE_STYLE('',(#35));
#34=SURFACE_STYLE_FILL_AREA(#36);
#35=SURFACE_STYLE_FILL_AREA(#37);
#36=FILL_AREA_STYLE('',(#38));
#37=FILL_AREA_STYLE('',(#39));
#38=FILL_AREA_STYLE_COLOUR('',#162);
#39=FILL_AREA_STYLE_COLOUR('',#163);
#40=MANIFOLD_SOLID_BREP('NOCUT',#42);
#41=MANIFOLD_SOLID_BREP('CUT',#43);
#42=CLOSED_SHELL('',(#52,#53,#54,#55,#56));
#43=CLOSED_SHELL('',(#57,#58,#59,#60));
#44=CYLINDRICAL_SURFACE('',#174,4.);
#45=PLANE('',#172);
#46=PLANE('',#176);
#47=PLANE('',#178);
#48=FACE_OUTER_BOUND('',#77,.T.);
#49=FACE_OUTER_BOUND('',#82,.T.);
#50=FACE_OUTER_BOUND('',#83,.T.);
#51=FACE_OUTER_BOUND('',#88,.T.);
#52=ADVANCED_FACE('',(#65,#66),#61,.T.);
#53=ADVANCED_FACE('',(#48),#45,.F.);
#54=ADVANCED_FACE('',(#67,#68),#44,.T.);
#55=ADVANCED_FACE('',(#69,#70),#62,.T.);
#56=ADVANCED_FACE('',(#49),#46,.T.);
#57=ADVANCED_FACE('',(#50),#47,.T.);
#58=ADVANCED_FACE('',(#71,#72),#63,.T.);
#59=ADVANCED_FACE('',(#73,#74),#64,.T.);
#60=ADVANCED_FACE('',(#51),#28,.T.);
#61=CONICAL_SURFACE('',#170,4.,3.00000000000021);
#62=CONICAL_SURFACE('',#175,3.4,45.);
#63=CONICAL_SURFACE('',#179,4.,3.00000000000021);
#64=CONICAL_SURFACE('',#181,3.9453129594901,3.);
#65=FACE_BOUND('',#75,.T.);
#66=FACE_BOUND('',#76,.T.);
#67=FACE_BOUND('',#78,.T.);
#68=FACE_BOUND('',#79,.T.);
#69=FACE_BOUND('',#80,.T.);
#70=FACE_BOUND('',#81,.T.);
#71=FACE_BOUND('',#84,.T.);
#72=FACE_BOUND('',#85,.T.);
#73=FACE_BOUND('',#86,.T.);
#74=FACE_BOUND('',#87,.T.);
#75=EDGE_LOOP('',(#89));
#76=EDGE_LOOP('',(#90));
#77=EDGE_LOOP('',(#91));
#78=EDGE_LOOP('',(#92));
#79=EDGE_LOOP('',(#93));
#80=EDGE_LOOP('',(#94));
#81=EDGE_LOOP('',(#95));
#82=EDGE_LOOP('',(#96));
#83=EDGE_LOOP('',(#97));
#84=EDGE_LOOP('',(#98));
#85=EDGE_LOOP('',(#99));
#86=EDGE_LOOP('',(#100));
#87=EDGE_LOOP('',(#101));
#88=EDGE_LOOP('',(#102));
#89=ORIENTED_EDGE('',*,*,#110,.F.);
#90=ORIENTED_EDGE('',*,*,#111,.T.);
#91=ORIENTED_EDGE('',*,*,#112,.T.);
#92=ORIENTED_EDGE('',*,*,#113,.T.);
#93=ORIENTED_EDGE('',*,*,#110,.T.);
#94=ORIENTED_EDGE('',*,*,#113,.F.);
#95=ORIENTED_EDGE('',*,*,#112,.F.);
#96=ORIENTED_EDGE('',*,*,#111,.F.);
#97=ORIENTED_EDGE('',*,*,#114,.F.);
#98=ORIENTED_EDGE('',*,*,#115,.T.);
#99=ORIENTED_EDGE('',*,*,#114,.T.);
#100=ORIENTED_EDGE('',*,*,#116,.T.);
#101=ORIENTED_EDGE('',*,*,#115,.F.);
#102=ORIENTED_EDGE('',*,*,#116,.F.);
#103=VERTEX_POINT('',#244);
#104=VERTEX_POINT('',#246);
#105=VERTEX_POINT('',#249);
#106=VERTEX_POINT('',#252);
#107=VERTEX_POINT('',#257);
#108=VERTEX_POINT('',#277);
#109=VERTEX_POINT('',#280);
#110=EDGE_CURVE('',#103,#103,#117,.T.);
#111=EDGE_CURVE('',#104,#104,#118,.T.);
#112=EDGE_CURVE('',#105,#105,#119,.T.);
#113=EDGE_CURVE('',#106,#106,#120,.T.);
#114=EDGE_CURVE('',#107,#107,#121,.T.);
#115=EDGE_CURVE('',#108,#108,#29,.T.);
#116=EDGE_CURVE('',#109,#109,#122,.T.);
#117=CIRCLE('',#168,4.);
#118=CIRCLE('',#169,3.99464479527844);
#119=CIRCLE('',#171,3.4);
#120=CIRCLE('',#173,4.);
#121=CIRCLE('',#177,3.99464479527844);
#122=CIRCLE('',#180,2.54650531362416);
#123=CURVE_STYLE('',#127,POSITIVE_LENGTH_MEASURE(0.18),#134);
#124=CURVE_STYLE('',#128,POSITIVE_LENGTH_MEASURE(0.13),#161);
#125=CURVE_STYLE('',#129,POSITIVE_LENGTH_MEASURE(0.18),#160);
#126=CURVE_STYLE('',#130,POSITIVE_LENGTH_MEASURE(0.18),#160);
#127=DRAUGHTING_PRE_DEFINED_CURVE_FONT('continuous');
#128=DRAUGHTING_PRE_DEFINED_CURVE_FONT('continuous');
#129=DRAUGHTING_PRE_DEFINED_CURVE_FONT('continuous');
#130=DRAUGHTING_PRE_DEFINED_CURVE_FONT('continuous');
#131=TRIMMED_CURVE('CUTTING PART LINE',#132,(PARAMETER_VALUE(0.)),(
PARAMETER_VALUE(1.)),.T.,.PARAMETER.);
#132=(
BOUNDED_CURVE()
B_SPLINE_CURVE(3,(#225,#226,#227,#228,#229,#230,#231,#232,#233,#234,#235,
#236,#237,#238,#239),.UNSPECIFIED.,.T.,.F.)
B_SPLINE_CURVE_WITH_KNOTS((4,3,3,3,2,4),(0.,0.0609050870610371,0.519067942587853,
0.578103300582764,0.985648527848381,1.),.UNSPECIFIED.)
CURVE()
GEOMETRIC_REPRESENTATION_ITEM()
RATIONAL_B_SPLINE_CURVE((1.,1.,1.,1.,1.,1.,1.,0.816916247341526,0.816916247341526,
1.,1.,1.,1.,1.,1.))
REPRESENTATION_ITEM('CUTTING PART LINE')
);
#133=DRAUGHTING_PRE_DEFINED_COLOUR('white');
#134=DRAUGHTING_PRE_DEFINED_COLOUR('blue');
#135=PRESENTATION_LAYER_ASSIGNMENT('1','Layer 1',(#222,#223,#224,#131,#165,
#166,#167,#40,#41));
#136=STYLED_ITEM('',(#145),#222);
#137=STYLED_ITEM('',(#146),#223);
#138=STYLED_ITEM('',(#147),#224);
#139=STYLED_ITEM('',(#148),#131);
#140=STYLED_ITEM('',(#149),#165);
#141=STYLED_ITEM('',(#150),#166);
#142=STYLED_ITEM('',(#151),#167);
#143=STYLED_ITEM('',(#152),#40);
#144=STYLED_ITEM('',(#153),#41);
#145=PRESENTATION_STYLE_ASSIGNMENT((#154));
#146=PRESENTATION_STYLE_ASSIGNMENT((#155));
#147=PRESENTATION_STYLE_ASSIGNMENT((#156));
#148=PRESENTATION_STYLE_ASSIGNMENT((#123));
#149=PRESENTATION_STYLE_ASSIGNMENT((#124));
#150=PRESENTATION_STYLE_ASSIGNMENT((#125));
#151=PRESENTATION_STYLE_ASSIGNMENT((#126));
#152=PRESENTATION_STYLE_ASSIGNMENT((#30));
#153=PRESENTATION_STYLE_ASSIGNMENT((#31));
#154=POINT_STYLE('',#157,POSITIVE_LENGTH_MEASURE(3.),#160);
#155=POINT_STYLE('',#158,POSITIVE_LENGTH_MEASURE(3.),#133);
#156=POINT_STYLE('',#159,POSITIVE_LENGTH_MEASURE(3.),#160);
#157=PRE_DEFINED_POINT_MARKER_SYMBOL('plus');
#158=PRE_DEFINED_POINT_MARKER_SYMBOL('plus');
#159=PRE_DEFINED_POINT_MARKER_SYMBOL('plus');
#160=COLOUR_RGB('Medium Maroon',0.6,0.4,0.4);
#161=COLOUR_RGB('Silver Gray',0.6,0.6,0.6);
#162=COLOUR_RGB('TLS_NOCUT',0.498023956664378,0.498023956664378,0.498023956664378);
#163=COLOUR_RGB('TLS_CUT',0.8,0.8,0.8);
#164=AXIS2_PLACEMENT_3D('',#221,#183,#184);
#165=AXIS2_PLACEMENT_3D('PCS',#240,#185,#186);
#166=AXIS2_PLACEMENT_3D('MCS',#241,#187,#188);
#167=AXIS2_PLACEMENT_3D('CIP',#242,#189,#190);
#168=AXIS2_PLACEMENT_3D('',#243,#191,#192);
#169=AXIS2_PLACEMENT_3D('',#245,#193,#194);
#170=AXIS2_PLACEMENT_3D('',#247,#195,#196);
#171=AXIS2_PLACEMENT_3D('',#248,#197,#198);
#172=AXIS2_PLACEMENT_3D('',#250,#199,#200);
#173=AXIS2_PLACEMENT_3D('',#251,#201,#202);
#174=AXIS2_PLACEMENT_3D('',#253,#203,#204);
#175=AXIS2_PLACEMENT_3D('',#254,#205,#206);
#176=AXIS2_PLACEMENT_3D('',#255,#207,#208);
#177=AXIS2_PLACEMENT_3D('',#256,#209,#210);
#178=AXIS2_PLACEMENT_3D('',#258,#211,#212);
#179=AXIS2_PLACEMENT_3D('',#278,#213,#214);
#180=AXIS2_PLACEMENT_3D('',#279,#215,#216);
#181=AXIS2_PLACEMENT_3D('',#281,#217,#218);
#182=AXIS2_PLACEMENT_3D('',#282,#219,#220);
#183=DIRECTION('',(0.,0.,1.));
#184=DIRECTION('',(1.,0.,0.));
#185=DIRECTION('',(0.,0.,1.));
#186=DIRECTION('',(1.,0.,0.));
#187=DIRECTION('',(0.,0.,1.));
#188=DIRECTION('',(1.,0.,0.));
#189=DIRECTION('',(0.,0.,1.));
#190=DIRECTION('',(1.,0.,0.));
#191=DIRECTION('',(0.,0.,1.));
#192=DIRECTION('',(1.,0.,0.));
#193=DIRECTION('',(0.,0.,1.));
#194=DIRECTION('',(-1.,0.,0.));
#195=DIRECTION('',(0.,0.,1.));
#196=DIRECTION('',(1.,0.,0.));
#197=DIRECTION('',(0.,0.,1.));
#198=DIRECTION('',(-1.,0.,0.));
#199=DIRECTION('',(0.,0.,-1.));
#200=DIRECTION('',(-1.,0.,0.));
#201=DIRECTION('',(0.,0.,-1.));
#202=DIRECTION('',(-1.,0.,0.));
#203=DIRECTION('',(0.,0.,1.));
#204=DIRECTION('',(1.,0.,0.));
#205=DIRECTION('',(0.,0.,-1.));
#206=DIRECTION('',(-1.,0.,0.));
#207=DIRECTION('',(0.,0.,-1.));
#208=DIRECTION('',(-1.,0.,0.));
#209=DIRECTION('',(0.,0.,-1.));
#210=DIRECTION('',(1.,0.,0.));
#211=DIRECTION('',(0.,0.,1.));
#212=DIRECTION('',(1.,0.,0.));
#213=DIRECTION('',(0.,0.,1.));
#214=DIRECTION('',(1.,0.,0.));
#215=DIRECTION('',(0.,1.07314696530712E-18,1.));
#216=DIRECTION('',(0.,1.,0.));
#217=DIRECTION('',(0.,1.07314696530712E-18,1.));
#218=DIRECTION('',(0.,1.,8.61927099196373E-16));
#219=DIRECTION('',(0.,6.23054869226748E-17,0.999999999999999));
#220=DIRECTION('',(0.,1.,0.));
#221=CARTESIAN_POINT('',(0.,0.,0.));
#222=CARTESIAN_POINT('',(0.,0.,-36.));
#223=CARTESIAN_POINT('CRP',(-2.5,0.,-90.));
#224=CARTESIAN_POINT('CIP_DCSYS',(0.,0.,-90.));
#225=CARTESIAN_POINT('',(-3.99464479527844,0.,-60.));
#226=CARTESIAN_POINT('',(-2.66309653018562,0.,-60.));
#227=CARTESIAN_POINT('',(-1.33154826509281,0.,-60.));
#228=CARTESIAN_POINT('',(0.,0.,-60.));
#229=CARTESIAN_POINT('',(0.,0.,-70.0166666666667));
#230=CARTESIAN_POINT('',(0.,0.,-80.0333333333333));
#231=CARTESIAN_POINT('',(5.51397221316097E-15,0.,-90.05));
#232=CARTESIAN_POINT('',(-1.43246358789844,0.,-90.05));
#233=CARTESIAN_POINT('',(-2.47153596196828,0.,-89.0639571347554));
#234=CARTESIAN_POINT('',(-2.54650531272699,0.,-87.6334567055386));
#235=CARTESIAN_POINT('',(-3.01282024123739,0.,-78.7356378151051));
#236=CARTESIAN_POINT('',(-3.47913517064479,0.,-69.8378189075525));
#237=CARTESIAN_POINT('',(-3.96183559685199,0.,-60.6266683947726));
#238=CARTESIAN_POINT('',(-3.97822369110308,0.,-60.3133333333333));
#239=CARTESIAN_POINT('',(-3.99464479527844,0.,-60.));
#240=CARTESIAN_POINT('',(0.,0.,0.));
#241=CARTESIAN_POINT('',(0.,0.,-36.));
#242=CARTESIAN_POINT('',(0.,0.,-90.));
#243=CARTESIAN_POINT('',(0.,0.,-59.8978166067171));
#244=CARTESIAN_POINT('',(4.,0.,-59.8978166067171));
#245=CARTESIAN_POINT('',(0.,0.,-60.));
#246=CARTESIAN_POINT('',(-3.99464479527844,0.,-60.));
#247=CARTESIAN_POINT('',(0.,0.,-59.8978166067171));
#248=CARTESIAN_POINT('',(0.,0.,0.));
#249=CARTESIAN_POINT('',(-3.4,0.,0.));
#250=CARTESIAN_POINT('',(0.,4.00000000000001,0.));
#251=CARTESIAN_POINT('',(0.,0.,-0.6));
#252=CARTESIAN_POINT('',(-4.,0.,-0.6));
#253=CARTESIAN_POINT('',(0.,0.,20.9080749503476));
#254=CARTESIAN_POINT('',(0.,0.,0.));
#255=CARTESIAN_POINT('',(0.,0.,-60.));
#256=CARTESIAN_POINT('',(0.,0.,-60.));
#257=CARTESIAN_POINT('',(3.99464479527844,0.,-60.));
#258=CARTESIAN_POINT('',(0.,0.,-60.));
#259=CARTESIAN_POINT('',(3.94538148275238,-1.03289845681867,-60.94));
#260=CARTESIAN_POINT('',(3.94538148275238,1.03289845681867,-60.94));
#261=CARTESIAN_POINT('',(3.52017550391564,2.05943649772844,-60.94));
#262=CARTESIAN_POINT('',(2.05943649772844,3.52017550391564,-60.94));
#263=CARTESIAN_POINT('',(1.03289845681867,3.94538148275238,-60.94));
#264=CARTESIAN_POINT('',(-1.03289845681867,3.94538148275238,-60.94));
#265=CARTESIAN_POINT('',(-2.05943649772844,3.52017550391565,-60.94));
#266=CARTESIAN_POINT('',(-3.52017550391564,2.05943649772844,-60.94));
#267=CARTESIAN_POINT('',(-3.94538148275238,1.03289845681867,-60.94));
#268=CARTESIAN_POINT('',(-3.94538148275238,-1.03289845681867,-60.94));
#269=CARTESIAN_POINT('',(-3.52017550391565,-2.05943649772844,-60.94));
#270=CARTESIAN_POINT('',(-2.05943649772844,-3.52017550391564,-60.94));
#271=CARTESIAN_POINT('',(-1.03289845681868,-3.94538148275237,-60.94));
#272=CARTESIAN_POINT('',(1.03289845681867,-3.94538148275238,-60.94));
#273=CARTESIAN_POINT('',(2.05943649772844,-3.52017550391565,-60.94));
#274=CARTESIAN_POINT('',(3.52017550391564,-2.05943649772844,-60.94));
#275=CARTESIAN_POINT('',(3.94538148275238,-1.03289845681867,-60.94));
#276=CARTESIAN_POINT('',(3.94538148275238,1.03289845681867,-60.94));
#277=CARTESIAN_POINT('',(3.94541579140232,-8.3478992908161E-16,-60.94));
#278=CARTESIAN_POINT('',(0.,0.,-59.8978166067171));
#279=CARTESIAN_POINT('',(0.,-7.11867391467361E-18,-87.6334566884195));
#280=CARTESIAN_POINT('',(0.,2.54650531362416,-87.6334566884195));
#281=CARTESIAN_POINT('',(0.,2.15245199154299E-17,-60.9426167978121));
#282=CARTESIAN_POINT('',(0.,0.,-87.5));
#283=MECHANICAL_DESIGN_GEOMETRIC_PRESENTATION_REPRESENTATION('',(#136,#137,
#138,#139,#140,#141,#142,#143,#144),#284);
#284=(
GEOMETRIC_REPRESENTATION_CONTEXT(3)
GLOBAL_UNCERTAINTY_ASSIGNED_CONTEXT((#285))
GLOBAL_UNIT_ASSIGNED_CONTEXT((#291,#287,#286))
REPRESENTATION_CONTEXT('TOOL','TOP_LEVEL_ASSEMBLY_PART')
);
#285=UNCERTAINTY_MEASURE_WITH_UNIT(LENGTH_MEASURE(0.0508),#291,
'DISTANCE_ACCURACY_VALUE','Maximum Tolerance applied to model');
#286=(
NAMED_UNIT(*)
SI_UNIT($,.STERADIAN.)
SOLID_ANGLE_UNIT()
);
#287=(
CONVERSION_BASED_UNIT('DEGREE',#289)
NAMED_UNIT(#288)
PLANE_ANGLE_UNIT()
);
#288=DIMENSIONAL_EXPONENTS(0.,0.,0.,0.,0.,0.,0.);
#289=PLANE_ANGLE_MEASURE_WITH_UNIT(PLANE_ANGLE_MEASURE(0.0174532925),#290);
#290=(
NAMED_UNIT(*)
PLANE_ANGLE_UNIT()
SI_UNIT($,.RADIAN.)
);
#291=(
LENGTH_UNIT()
NAMED_UNIT(*)
SI_UNIT(.MILLI.,.METRE.)
);
ENDSEC;
END-ISO-10303-21;
