ISO-10303-21;
HEADER;
/* Generated by software containing ST-Developer
 * from STEP Tools, Inc. (www.steptools.com) 
 */
/* OPTION: using custom schema-name function */

FILE_DESCRIPTION(
/* description */ (''),
/* implementation_level */ '2;1');

FILE_NAME(
/* name */ 'TOOL.STP',
/* time_stamp */ '2024-12-09T11:32:49+01:00',
/* author */ (''),
/* organization */ ('SMS'),
/* preprocessor_version */ 'ST-DEVELOPER v16.7',
/* originating_system */ 'SIEMENS PLM Software NX 12.0',
/* authorisation */ '');

FILE_SCHEMA (('AUTOMOTIVE_DESIGN { 1 0 10303 214 3 1 1 1 }'));
ENDSEC;

DATA;
#10=CONSTRUCTIVE_GEOMETRY_REPRESENTATION_RELATIONSHIP(
'supplemental geometry','',#26,#11);
#11=CONSTRUCTIVE_GEOMETRY_REPRESENTATION('supplemental geometry',(#165,
#166,#167),#282);
#12=GEOMETRICALLY_BOUNDED_WIREFRAME_SHAPE_REPRESENTATION('Tool-None',(#27),
#282);
#13=SHAPE_REPRESENTATION_RELATIONSHIP('None',
'relationship between Tool-None and Tool-None',#26,#15);
#14=SHAPE_REPRESENTATION_RELATIONSHIP('None',
'relationship between Tool-None and Tool-None',#26,#12);
#15=ADVANCED_BREP_SHAPE_REPRESENTATION('Tool-None',(#39,#40),#282);
#16=SHAPE_DEFINITION_REPRESENTATION(#17,#26);
#17=PRODUCT_DEFINITION_SHAPE('','',#18);
#18=PRODUCT_DEFINITION(' ','',#20,#19);
#19=PRODUCT_DEFINITION_CONTEXT('part definition',#25,'design');
#20=PRODUCT_DEFINITION_FORMATION_WITH_SPECIFIED_SOURCE(' ',' ',#22,
 .NOT_KNOWN.);
#21=PRODUCT_RELATED_PRODUCT_CATEGORY('part','',(#22));
#22=PRODUCT('Tool','Tool',' ',(#23));
#23=PRODUCT_CONTEXT(' ',#25,'mechanical');
#24=APPLICATION_PROTOCOL_DEFINITION('international standard',
'automotive_design',2010,#25);
#25=APPLICATION_CONTEXT(
'core data for automotive mechanical design processes');
#26=SHAPE_REPRESENTATION('Tool-None',(#164),#282);
#27=GEOMETRIC_CURVE_SET('None',(#222,#223,#224,#131));
#28=SPHERICAL_SURFACE('',#182,1.55);
#29=SURFACE_STYLE_USAGE(.BOTH.,#31);
#30=SURFACE_STYLE_USAGE(.BOTH.,#32);
#31=SURFACE_SIDE_STYLE('',(#33));
#32=SURFACE_SIDE_STYLE('',(#34));
#33=SURFACE_STYLE_FILL_AREA(#35);
#34=SURFACE_STYLE_FILL_AREA(#36);
#35=FILL_AREA_STYLE('',(#37));
#36=FILL_AREA_STYLE('',(#38));
#37=FILL_AREA_STYLE_COLOUR('',#162);
#38=FILL_AREA_STYLE_COLOUR('',#163);
#39=MANIFOLD_SOLID_BREP('NOCUT',#41);
#40=MANIFOLD_SOLID_BREP('CUT',#42);
#41=CLOSED_SHELL('',(#51,#52,#53,#54,#55,#56));
#42=CLOSED_SHELL('',(#57,#58,#59));
#43=CYLINDRICAL_SURFACE('',#175,5.);
#44=PLANE('',#173);
#45=PLANE('',#177);
#46=PLANE('',#179);
#47=FACE_OUTER_BOUND('',#84,.T.);
#48=FACE_OUTER_BOUND('',#89,.T.);
#49=FACE_OUTER_BOUND('',#90,.T.);
#50=FACE_OUTER_BOUND('',#93,.T.);
#51=ADVANCED_FACE('',(#70,#71),#60,.T.);
#52=ADVANCED_FACE('',(#72,#73),#61,.T.);
#53=ADVANCED_FACE('',(#47),#44,.F.);
#54=ADVANCED_FACE('',(#74,#75),#43,.T.);
#55=ADVANCED_FACE('',(#76,#77),#62,.T.);
#56=ADVANCED_FACE('',(#48),#45,.T.);
#57=ADVANCED_FACE('',(#49),#46,.T.);
#58=ADVANCED_FACE('',(#78,#79),#63,.T.);
#59=ADVANCED_FACE('',(#50),#28,.T.);
#60=CONICAL_SURFACE('',#169,4.94539370431152,3.);
#61=CONICAL_SURFACE('',#171,5.,2.99999999999967);
#62=CONICAL_SURFACE('',#176,4.4,45.);
#63=CONICAL_SURFACE('',#181,4.94539370431152,3.);
#64=CIRCLE('',#168,1.99759326020263);
#65=CIRCLE('',#170,5.);
#66=CIRCLE('',#172,4.4);
#67=CIRCLE('',#174,5.);
#68=CIRCLE('',#178,1.99759326020263);
#69=CIRCLE('',#180,1.54787577886959);
#70=FACE_BOUND('',#80,.T.);
#71=FACE_BOUND('',#81,.T.);
#72=FACE_BOUND('',#82,.T.);
#73=FACE_BOUND('',#83,.T.);
#74=FACE_BOUND('',#85,.T.);
#75=FACE_BOUND('',#86,.T.);
#76=FACE_BOUND('',#87,.T.);
#77=FACE_BOUND('',#88,.T.);
#78=FACE_BOUND('',#91,.T.);
#79=FACE_BOUND('',#92,.T.);
#80=EDGE_LOOP('',(#94));
#81=EDGE_LOOP('',(#95));
#82=EDGE_LOOP('',(#96));
#83=EDGE_LOOP('',(#97));
#84=EDGE_LOOP('',(#98));
#85=EDGE_LOOP('',(#99));
#86=EDGE_LOOP('',(#100));
#87=EDGE_LOOP('',(#101));
#88=EDGE_LOOP('',(#102));
#89=EDGE_LOOP('',(#103));
#90=EDGE_LOOP('',(#104));
#91=EDGE_LOOP('',(#105));
#92=EDGE_LOOP('',(#106));
#93=EDGE_LOOP('',(#107));
#94=ORIENTED_EDGE('',*,*,#115,.F.);
#95=ORIENTED_EDGE('',*,*,#116,.T.);
#96=ORIENTED_EDGE('',*,*,#115,.T.);
#97=ORIENTED_EDGE('',*,*,#117,.F.);
#98=ORIENTED_EDGE('',*,*,#118,.T.);
#99=ORIENTED_EDGE('',*,*,#119,.T.);
#100=ORIENTED_EDGE('',*,*,#117,.T.);
#101=ORIENTED_EDGE('',*,*,#119,.F.);
#102=ORIENTED_EDGE('',*,*,#118,.F.);
#103=ORIENTED_EDGE('',*,*,#116,.F.);
#104=ORIENTED_EDGE('',*,*,#120,.F.);
#105=ORIENTED_EDGE('',*,*,#121,.T.);
#106=ORIENTED_EDGE('',*,*,#120,.T.);
#107=ORIENTED_EDGE('',*,*,#121,.F.);
#108=VERTEX_POINT('',#259);
#109=VERTEX_POINT('',#261);
#110=VERTEX_POINT('',#264);
#111=VERTEX_POINT('',#267);
#112=VERTEX_POINT('',#270);
#113=VERTEX_POINT('',#275);
#114=VERTEX_POINT('',#278);
#115=EDGE_CURVE('',#108,#108,#122,.T.);
#116=EDGE_CURVE('',#109,#109,#64,.T.);
#117=EDGE_CURVE('',#110,#110,#65,.T.);
#118=EDGE_CURVE('',#111,#111,#66,.T.);
#119=EDGE_CURVE('',#112,#112,#67,.T.);
#120=EDGE_CURVE('',#113,#113,#68,.T.);
#121=EDGE_CURVE('',#114,#114,#69,.T.);
#122=B_SPLINE_CURVE_WITH_KNOTS('',3,(#241,#242,#243,#244,#245,#246,#247,
#248,#249,#250,#251,#252,#253,#254,#255,#256,#257,#258),.UNSPECIFIED.,.T.,
 .F.,(2,2,2,2,2,2,2,2,2,2,2),(-0.125,0.,0.125,0.25,0.375,0.5,0.625,0.75,
0.875,1.,1.125),.UNSPECIFIED.);
#123=CURVE_STYLE('',#127,POSITIVE_LENGTH_MEASURE(0.18),#134);
#124=CURVE_STYLE('',#128,POSITIVE_LENGTH_MEASURE(0.13),#161);
#125=CURVE_STYLE('',#129,POSITIVE_LENGTH_MEASURE(0.18),#160);
#126=CURVE_STYLE('',#130,POSITIVE_LENGTH_MEASURE(0.18),#160);
#127=DRAUGHTING_PRE_DEFINED_CURVE_FONT('continuous');
#128=DRAUGHTING_PRE_DEFINED_CURVE_FONT('continuous');
#129=DRAUGHTING_PRE_DEFINED_CURVE_FONT('continuous');
#130=DRAUGHTING_PRE_DEFINED_CURVE_FONT('continuous');
#131=TRIMMED_CURVE('CUTTING PART LINE',#132,(PARAMETER_VALUE(0.)),(
PARAMETER_VALUE(1.)),.T.,.PARAMETER.);
#132=(
BOUNDED_CURVE()
B_SPLINE_CURVE(3,(#225,#226,#227,#228,#229,#230,#231,#232,#233,#234,#235,
#236,#237),.UNSPECIFIED.,.T.,.F.)
B_SPLINE_CURVE_WITH_KNOTS((4,3,3,3,4),(0.,0.0868742915929934,0.523943562848685,
0.626299380171332,1.),.UNSPECIFIED.)
CURVE()
GEOMETRIC_REPRESENTATION_ITEM()
RATIONAL_B_SPLINE_CURVE((1.,1.,1.,1.,1.,1.,1.,0.816916247341527,0.816916247341527,
1.,1.,1.,1.))
REPRESENTATION_ITEM('CUTTING PART LINE')
);
#133=DRAUGHTING_PRE_DEFINED_COLOUR('white');
#134=DRAUGHTING_PRE_DEFINED_COLOUR('blue');
#135=PRESENTATION_LAYER_ASSIGNMENT('1','Layer 1',(#222,#223,#224,#131,#165,
#166,#167,#39,#40));
#136=STYLED_ITEM('',(#145),#222);
#137=STYLED_ITEM('',(#146),#223);
#138=STYLED_ITEM('',(#147),#224);
#139=STYLED_ITEM('',(#148),#131);
#140=STYLED_ITEM('',(#149),#165);
#141=STYLED_ITEM('',(#150),#166);
#142=STYLED_ITEM('',(#151),#167);
#143=STYLED_ITEM('',(#152),#39);
#144=STYLED_ITEM('',(#153),#40);
#145=PRESENTATION_STYLE_ASSIGNMENT((#154));
#146=PRESENTATION_STYLE_ASSIGNMENT((#155));
#147=PRESENTATION_STYLE_ASSIGNMENT((#156));
#148=PRESENTATION_STYLE_ASSIGNMENT((#123));
#149=PRESENTATION_STYLE_ASSIGNMENT((#124));
#150=PRESENTATION_STYLE_ASSIGNMENT((#125));
#151=PRESENTATION_STYLE_ASSIGNMENT((#126));
#152=PRESENTATION_STYLE_ASSIGNMENT((#29));
#153=PRESENTATION_STYLE_ASSIGNMENT((#30));
#154=POINT_STYLE('',#157,POSITIVE_LENGTH_MEASURE(3.),#160);
#155=POINT_STYLE('',#158,POSITIVE_LENGTH_MEASURE(3.),#133);
#156=POINT_STYLE('',#159,POSITIVE_LENGTH_MEASURE(3.),#160);
#157=PRE_DEFINED_POINT_MARKER_SYMBOL('plus');
#158=PRE_DEFINED_POINT_MARKER_SYMBOL('plus');
#159=PRE_DEFINED_POINT_MARKER_SYMBOL('plus');
#160=COLOUR_RGB('Medium Maroon',0.6,0.4,0.4);
#161=COLOUR_RGB('Silver Gray',0.6,0.6,0.6);
#162=COLOUR_RGB('TLS_NOCUT',0.498023956664378,0.498023956664378,0.498023956664378);
#163=COLOUR_RGB('TLS_CUT',0.8,0.8,0.8);
#164=AXIS2_PLACEMENT_3D('',#221,#183,#184);
#165=AXIS2_PLACEMENT_3D('PCS',#238,#185,#186);
#166=AXIS2_PLACEMENT_3D('MCS',#239,#187,#188);
#167=AXIS2_PLACEMENT_3D('CIP',#240,#189,#190);
#168=AXIS2_PLACEMENT_3D('',#260,#191,#192);
#169=AXIS2_PLACEMENT_3D('',#262,#193,#194);
#170=AXIS2_PLACEMENT_3D('',#263,#195,#196);
#171=AXIS2_PLACEMENT_3D('',#265,#197,#198);
#172=AXIS2_PLACEMENT_3D('',#266,#199,#200);
#173=AXIS2_PLACEMENT_3D('',#268,#201,#202);
#174=AXIS2_PLACEMENT_3D('',#269,#203,#204);
#175=AXIS2_PLACEMENT_3D('',#271,#205,#206);
#176=AXIS2_PLACEMENT_3D('',#272,#207,#208);
#177=AXIS2_PLACEMENT_3D('',#273,#209,#210);
#178=AXIS2_PLACEMENT_3D('',#274,#211,#212);
#179=AXIS2_PLACEMENT_3D('',#276,#213,#214);
#180=AXIS2_PLACEMENT_3D('',#277,#215,#216);
#181=AXIS2_PLACEMENT_3D('',#279,#217,#218);
#182=AXIS2_PLACEMENT_3D('',#280,#219,#220);
#183=DIRECTION('',(0.,0.,1.));
#184=DIRECTION('',(1.,0.,0.));
#185=DIRECTION('',(0.,0.,1.));
#186=DIRECTION('',(1.,0.,0.));
#187=DIRECTION('',(0.,0.,1.));
#188=DIRECTION('',(1.,0.,0.));
#189=DIRECTION('',(0.,0.,1.));
#190=DIRECTION('',(1.,0.,0.));
#191=DIRECTION('',(0.,0.,1.));
#192=DIRECTION('',(-1.,0.,0.));
#193=DIRECTION('',(0.,1.07314696530712E-18,1.));
#194=DIRECTION('',(0.,1.,-2.41970706849554E-16));
#195=DIRECTION('',(0.,0.,1.));
#196=DIRECTION('',(1.,0.,0.));
#197=DIRECTION('',(0.,0.,1.));
#198=DIRECTION('',(1.,0.,1.20870272122819E-16));
#199=DIRECTION('',(0.,0.,1.));
#200=DIRECTION('',(-1.,0.,0.));
#201=DIRECTION('',(0.,0.,-1.));
#202=DIRECTION('',(-1.,0.,0.));
#203=DIRECTION('',(0.,0.,-1.));
#204=DIRECTION('',(-1.,0.,0.));
#205=DIRECTION('',(0.,0.,1.));
#206=DIRECTION('',(1.,0.,0.));
#207=DIRECTION('',(0.,0.,-1.));
#208=DIRECTION('',(-1.,0.,0.));
#209=DIRECTION('',(0.,0.,-1.));
#210=DIRECTION('',(-1.,0.,0.));
#211=DIRECTION('',(0.,0.,-1.));
#212=DIRECTION('',(1.,0.,0.));
#213=DIRECTION('',(0.,0.,1.));
#214=DIRECTION('',(1.,0.,0.));
#215=DIRECTION('',(0.,1.07314696530712E-18,1.));
#216=DIRECTION('',(0.,1.,0.));
#217=DIRECTION('',(0.,1.07314696530712E-18,1.));
#218=DIRECTION('',(0.,1.,-2.41970706849554E-16));
#219=DIRECTION('',(0.,6.23054869226748E-17,0.999999999999997));
#220=DIRECTION('',(0.,1.,0.));
#221=CARTESIAN_POINT('',(0.,0.,0.));
#222=CARTESIAN_POINT('',(0.,0.,-40.));
#223=CARTESIAN_POINT('CRP',(-1.5,0.,-110.));
#224=CARTESIAN_POINT('CIP_DCSYS',(0.,0.,-110.));
#225=CARTESIAN_POINT('',(-1.99759326020263,0.,-100.));
#226=CARTESIAN_POINT('',(-1.33172884013509,0.,-100.));
#227=CARTESIAN_POINT('',(-0.665864420067543,0.,-100.));
#228=CARTESIAN_POINT('',(0.,0.,-100.));
#229=CARTESIAN_POINT('',(0.,0.,-103.35));
#230=CARTESIAN_POINT('',(0.,0.,-106.7));
#231=CARTESIAN_POINT('',(6.73861901230833E-15,0.,-110.05));
#232=CARTESIAN_POINT('',(-0.870713161271591,0.,-110.05));
#233=CARTESIAN_POINT('',(-1.5023061729611,0.,-109.450640611322));
#234=CARTESIAN_POINT('',(-1.54787577886958,0.,-108.581120732177));
#235=CARTESIAN_POINT('',(-1.69778160598065,0.,-105.720747154784));
#236=CARTESIAN_POINT('',(-1.84768743309162,0.,-102.860373577392));
#237=CARTESIAN_POINT('',(-1.99759326020263,0.,-100.));
#238=CARTESIAN_POINT('',(0.,0.,0.));
#239=CARTESIAN_POINT('',(0.,0.,-40.));
#240=CARTESIAN_POINT('',(0.,0.,-110.));
#241=CARTESIAN_POINT('',(4.9454622275738,-1.29471898356264,-43.75));
#242=CARTESIAN_POINT('',(4.94546222757379,1.29471898356264,-43.75));
#243=CARTESIAN_POINT('',(4.41247445022746,2.58146530421127,-43.75));
#244=CARTESIAN_POINT('',(2.58146530421127,4.41247445022745,-43.75));
#245=CARTESIAN_POINT('',(1.29471898356264,4.9454622275738,-43.75));
#246=CARTESIAN_POINT('',(-1.29471898356264,4.9454622275738,-43.75));
#247=CARTESIAN_POINT('',(-2.58146530421126,4.41247445022746,-43.75));
#248=CARTESIAN_POINT('',(-4.41247445022745,2.58146530421127,-43.75));
#249=CARTESIAN_POINT('',(-4.9454622275738,1.29471898356264,-43.75));
#250=CARTESIAN_POINT('',(-4.9454622275738,-1.29471898356264,-43.75));
#251=CARTESIAN_POINT('',(-4.41247445022746,-2.58146530421126,-43.75));
#252=CARTESIAN_POINT('',(-2.58146530421127,-4.41247445022746,-43.75));
#253=CARTESIAN_POINT('',(-1.29471898356264,-4.9454622275738,-43.75));
#254=CARTESIAN_POINT('',(1.29471898356264,-4.9454622275738,-43.75));
#255=CARTESIAN_POINT('',(2.58146530421126,-4.41247445022746,-43.75));
#256=CARTESIAN_POINT('',(4.41247445022746,-2.58146530421127,-43.75));
#257=CARTESIAN_POINT('',(4.9454622275738,-1.29471898356264,-43.75));
#258=CARTESIAN_POINT('',(4.94546222757379,1.29471898356264,-43.75));
#259=CARTESIAN_POINT('',(4.94549653622374,-1.03989672544582E-15,-43.75));
#260=CARTESIAN_POINT('',(6.02493614493553E-17,3.99719162490592E-17,-100.));
#261=CARTESIAN_POINT('',(-1.99759326020263,3.99719162490592E-17,-100.));
#262=CARTESIAN_POINT('',(0.,3.99719162490592E-17,-43.7526167978122));
#263=CARTESIAN_POINT('',(0.,0.,-42.7093573096913));
#264=CARTESIAN_POINT('',(5.,0.,-42.7093573096913));
#265=CARTESIAN_POINT('',(0.,0.,-42.7093573096913));
#266=CARTESIAN_POINT('',(0.,0.,0.));
#267=CARTESIAN_POINT('',(-4.4,0.,0.));
#268=CARTESIAN_POINT('',(0.,5.,0.));
#269=CARTESIAN_POINT('',(0.,0.,-0.6));
#270=CARTESIAN_POINT('',(-5.,0.,-0.6));
#271=CARTESIAN_POINT('',(0.,0.,20.9080749503476));
#272=CARTESIAN_POINT('',(0.,0.,0.));
#273=CARTESIAN_POINT('',(0.,0.,-100.));
#274=CARTESIAN_POINT('',(-6.02493614493553E-17,3.99719162490592E-17,-100.));
#275=CARTESIAN_POINT('',(1.99759326020263,3.99719162490592E-17,-100.));
#276=CARTESIAN_POINT('',(0.,0.,-100.));
#277=CARTESIAN_POINT('',(0.,-2.95985960135045E-17,-108.581120732177));
#278=CARTESIAN_POINT('',(0.,1.54787577886959,-108.581120732177));
#279=CARTESIAN_POINT('',(0.,3.99719162490592E-17,-43.7526167978122));
#280=CARTESIAN_POINT('',(0.,0.,-108.5));
#281=MECHANICAL_DESIGN_GEOMETRIC_PRESENTATION_REPRESENTATION('',(#136,#137,
#138,#139,#140,#141,#142,#143,#144),#282);
#282=(
GEOMETRIC_REPRESENTATION_CONTEXT(3)
GLOBAL_UNCERTAINTY_ASSIGNED_CONTEXT((#283))
GLOBAL_UNIT_ASSIGNED_CONTEXT((#289,#285,#284))
REPRESENTATION_CONTEXT('TOOL','TOP_LEVEL_ASSEMBLY_PART')
);
#283=UNCERTAINTY_MEASURE_WITH_UNIT(LENGTH_MEASURE(0.0508),#289,
'DISTANCE_ACCURACY_VALUE','Maximum Tolerance applied to model');
#284=(
NAMED_UNIT(*)
SI_UNIT($,.STERADIAN.)
SOLID_ANGLE_UNIT()
);
#285=(
CONVERSION_BASED_UNIT('DEGREE',#287)
NAMED_UNIT(#286)
PLANE_ANGLE_UNIT()
);
#286=DIMENSIONAL_EXPONENTS(0.,0.,0.,0.,0.,0.,0.);
#287=PLANE_ANGLE_MEASURE_WITH_UNIT(PLANE_ANGLE_MEASURE(0.0174532925),#288);
#288=(
NAMED_UNIT(*)
PLANE_ANGLE_UNIT()
SI_UNIT($,.RADIAN.)
);
#289=(
LENGTH_UNIT()
NAMED_UNIT(*)
SI_UNIT(.MILLI.,.METRE.)
);
ENDSEC;
END-ISO-10303-21;
