ISO-10303-21;
HEADER;
/* Generated by software containing ST-Developer
 * from STEP Tools, Inc. (www.steptools.com) 
 */
/* OPTION: using custom schema-name function */

FILE_DESCRIPTION(
/* description */ (''),
/* implementation_level */ '2;1');

FILE_NAME(
/* name */ '1733304825102.stp',
/* time_stamp */ '2024-12-04T09:33:55+00:00',
/* author */ (''),
/* organization */ ('SMS'),
/* preprocessor_version */ 'ST-DEVELOPER v16.7',
/* originating_system */ 'SIEMENS PLM Software NX 12.0',
/* authorisation */ '');

FILE_SCHEMA (('AUTOMOTIVE_DESIGN { 1 0 10303 214 3 1 1 1 }'));
ENDSEC;

DATA;
#10=CONSTRUCTIVE_GEOMETRY_REPRESENTATION_RELATIONSHIP(
'supplemental geometry','',#26,#11);
#11=CONSTRUCTIVE_GEOMETRY_REPRESENTATION('supplemental geometry',(#206,
#207,#208),#310);
#12=GEOMETRICALLY_BOUNDED_WIREFRAME_SHAPE_REPRESENTATION(
'462.1-0300-009A0-XM-None',(#27),#310);
#13=SHAPE_REPRESENTATION_RELATIONSHIP('None',
'relationship between 462.1-0300-009A0-XM-None and 462.1-0300-009A0-XM
-None',#26,#15);
#14=SHAPE_REPRESENTATION_RELATIONSHIP('None',
'relationship between 462.1-0300-009A0-XM-None and 462.1-0300-009A0-XM
-None',#26,#12);
#15=ADVANCED_BREP_SHAPE_REPRESENTATION('462.1-0300-009A0-XM-None',(#39,
#40),#310);
#16=SHAPE_DEFINITION_REPRESENTATION(#17,#26);
#17=PRODUCT_DEFINITION_SHAPE('','',#18);
#18=PRODUCT_DEFINITION(' ','',#20,#19);
#19=PRODUCT_DEFINITION_CONTEXT('part definition',#25,'design');
#20=PRODUCT_DEFINITION_FORMATION_WITH_SPECIFIED_SOURCE(' ',' ',#22,
 .NOT_KNOWN.);
#21=PRODUCT_RELATED_PRODUCT_CATEGORY('part','',(#22));
#22=PRODUCT('462.1-0300-009A0-XM','462.1-0300-009A0-XM',' ',(#23));
#23=PRODUCT_CONTEXT(' ',#25,'mechanical');
#24=APPLICATION_PROTOCOL_DEFINITION('international standard',
'automotive_design',2010,#25);
#25=APPLICATION_CONTEXT(
'core data for automotive mechanical design processes');
#26=SHAPE_REPRESENTATION('462.1-0300-009A0-XM-None',(#204),#310);
#27=GEOMETRIC_CURVE_SET('None',(#263,#264,#265,#266,#131,#132,#133,#134,
#135,#136,#137,#138,#99));
#28=VERTEX_LOOP('',#92);
#29=SURFACE_STYLE_USAGE(.BOTH.,#31);
#30=SURFACE_STYLE_USAGE(.BOTH.,#32);
#31=SURFACE_SIDE_STYLE('',(#33));
#32=SURFACE_SIDE_STYLE('',(#34));
#33=SURFACE_STYLE_FILL_AREA(#35);
#34=SURFACE_STYLE_FILL_AREA(#36);
#35=FILL_AREA_STYLE('',(#37));
#36=FILL_AREA_STYLE('',(#38));
#37=FILL_AREA_STYLE_COLOUR('',#154);
#38=FILL_AREA_STYLE_COLOUR('',#155);
#39=MANIFOLD_SOLID_BREP('NOCUT',#41);
#40=MANIFOLD_SOLID_BREP('CUT',#42);
#41=CLOSED_SHELL('',(#55,#56,#57,#58));
#42=CLOSED_SHELL('',(#59,#60,#61));
#43=CYLINDRICAL_SURFACE('',#215,1.5);
#44=CYLINDRICAL_SURFACE('',#220,1.5);
#45=CONICAL_SURFACE('',#214,1.5,29.9999999999999);
#46=CONICAL_SURFACE('',#219,1.5,65.0000000000001);
#47=FACE_BOUND('',#70,.T.);
#48=FACE_BOUND('',#71,.T.);
#49=FACE_BOUND('',#72,.T.);
#50=FACE_BOUND('',#73,.T.);
#51=FACE_BOUND('',#28,.T.);
#52=FACE_BOUND('',#75,.T.);
#53=FACE_BOUND('',#76,.T.);
#54=FACE_BOUND('',#77,.T.);
#55=ADVANCED_FACE('',(#65),#62,.T.);
#56=ADVANCED_FACE('',(#66),#63,.F.);
#57=ADVANCED_FACE('',(#47,#48),#45,.T.);
#58=ADVANCED_FACE('',(#49,#50),#43,.T.);
#59=ADVANCED_FACE('',(#67),#64,.F.);
#60=ADVANCED_FACE('',(#51,#52),#46,.T.);
#61=ADVANCED_FACE('',(#53,#54),#44,.T.);
#62=PLANE('',#210);
#63=PLANE('',#212);
#64=PLANE('',#217);
#65=FACE_OUTER_BOUND('',#68,.T.);
#66=FACE_OUTER_BOUND('',#69,.T.);
#67=FACE_OUTER_BOUND('',#74,.T.);
#68=EDGE_LOOP('',(#78));
#69=EDGE_LOOP('',(#79));
#70=EDGE_LOOP('',(#80));
#71=EDGE_LOOP('',(#81));
#72=EDGE_LOOP('',(#82));
#73=EDGE_LOOP('',(#83));
#74=EDGE_LOOP('',(#84));
#75=EDGE_LOOP('',(#85));
#76=EDGE_LOOP('',(#86));
#77=EDGE_LOOP('',(#87));
#78=ORIENTED_EDGE('',*,*,#94,.T.);
#79=ORIENTED_EDGE('',*,*,#95,.F.);
#80=ORIENTED_EDGE('',*,*,#95,.T.);
#81=ORIENTED_EDGE('',*,*,#96,.F.);
#82=ORIENTED_EDGE('',*,*,#94,.F.);
#83=ORIENTED_EDGE('',*,*,#96,.T.);
#84=ORIENTED_EDGE('',*,*,#97,.F.);
#85=ORIENTED_EDGE('',*,*,#98,.T.);
#86=ORIENTED_EDGE('',*,*,#98,.F.);
#87=ORIENTED_EDGE('',*,*,#97,.T.);
#88=VERTEX_POINT('',#292);
#89=VERTEX_POINT('',#295);
#90=VERTEX_POINT('',#298);
#91=VERTEX_POINT('',#302);
#92=VERTEX_POINT('',#304);
#93=VERTEX_POINT('',#306);
#94=EDGE_CURVE('',#88,#88,#101,.T.);
#95=EDGE_CURVE('',#89,#89,#102,.T.);
#96=EDGE_CURVE('',#90,#90,#103,.T.);
#97=EDGE_CURVE('',#91,#91,#104,.T.);
#98=EDGE_CURVE('',#93,#93,#105,.T.);
#99=B_SPLINE_CURVE_WITH_KNOTS('CUTTING PART LINE',3,(#275,#276,#277,#278,
#279,#280,#281,#282,#283,#284,#285,#286,#287),.UNSPECIFIED.,.T.,.F.,(4,
3,3,3,4),(0.,0.410174327515903,0.487313464270079,0.930088199672557,1.),
 .UNSPECIFIED.);
#100=CIRCLE('Arc1',#205,0.999999999999999);
#101=CIRCLE('',#209,1.5);
#102=CIRCLE('',#211,1.32679491924311);
#103=CIRCLE('',#213,1.5);
#104=CIRCLE('',#216,1.5);
#105=CIRCLE('',#218,1.5);
#106=INVISIBILITY((#162,#163,#164,#165,#166,#167,#168,#169));
#107=CURVE_STYLE('',#119,POSITIVE_LENGTH_MEASURE(0.18),#202);
#108=CURVE_STYLE('',#120,POSITIVE_LENGTH_MEASURE(0.18),#202);
#109=CURVE_STYLE('',#121,POSITIVE_LENGTH_MEASURE(0.18),#202);
#110=CURVE_STYLE('',#122,POSITIVE_LENGTH_MEASURE(0.18),#202);
#111=CURVE_STYLE('',#123,POSITIVE_LENGTH_MEASURE(0.18),#202);
#112=CURVE_STYLE('',#124,POSITIVE_LENGTH_MEASURE(0.18),#202);
#113=CURVE_STYLE('',#125,POSITIVE_LENGTH_MEASURE(0.18),#202);
#114=CURVE_STYLE('',#126,POSITIVE_LENGTH_MEASURE(0.18),#202);
#115=CURVE_STYLE('',#127,POSITIVE_LENGTH_MEASURE(0.18),#203);
#116=CURVE_STYLE('',#128,POSITIVE_LENGTH_MEASURE(0.18),#153);
#117=CURVE_STYLE('',#129,POSITIVE_LENGTH_MEASURE(0.18),#153);
#118=CURVE_STYLE('',#130,POSITIVE_LENGTH_MEASURE(0.18),#153);
#119=DRAUGHTING_PRE_DEFINED_CURVE_FONT('continuous');
#120=DRAUGHTING_PRE_DEFINED_CURVE_FONT('continuous');
#121=DRAUGHTING_PRE_DEFINED_CURVE_FONT('continuous');
#122=DRAUGHTING_PRE_DEFINED_CURVE_FONT('continuous');
#123=DRAUGHTING_PRE_DEFINED_CURVE_FONT('continuous');
#124=DRAUGHTING_PRE_DEFINED_CURVE_FONT('continuous');
#125=DRAUGHTING_PRE_DEFINED_CURVE_FONT('continuous');
#126=DRAUGHTING_PRE_DEFINED_CURVE_FONT('continuous');
#127=DRAUGHTING_PRE_DEFINED_CURVE_FONT('continuous');
#128=DRAUGHTING_PRE_DEFINED_CURVE_FONT('continuous');
#129=DRAUGHTING_PRE_DEFINED_CURVE_FONT('continuous');
#130=DRAUGHTING_PRE_DEFINED_CURVE_FONT('continuous');
#131=TRIMMED_CURVE('Line1',#139,(PARAMETER_VALUE(0.)),(
PARAMETER_VALUE(1.)),.T.,.PARAMETER.);
#132=TRIMMED_CURVE('Line3',#140,(PARAMETER_VALUE(0.)),(
PARAMETER_VALUE(1.)),.T.,.PARAMETER.);
#133=TRIMMED_CURVE('Line6',#141,(PARAMETER_VALUE(0.)),(
PARAMETER_VALUE(1.)),.T.,.PARAMETER.);
#134=TRIMMED_CURVE('Line7',#142,(PARAMETER_VALUE(0.)),(
PARAMETER_VALUE(1.)),.T.,.PARAMETER.);
#135=TRIMMED_CURVE('Line8',#143,(PARAMETER_VALUE(0.)),(
PARAMETER_VALUE(1.)),.T.,.PARAMETER.);
#136=TRIMMED_CURVE('Line9',#144,(PARAMETER_VALUE(0.)),(
PARAMETER_VALUE(1.)),.T.,.PARAMETER.);
#137=TRIMMED_CURVE('Line11',#145,(PARAMETER_VALUE(0.)),(
PARAMETER_VALUE(1.)),.T.,.PARAMETER.);
#138=TRIMMED_CURVE('Arc1',#100,(PARAMETER_VALUE(90.)),(
PARAMETER_VALUE(90.)),.T.,.PARAMETER.);
#139=LINE('Line1',#267,#146);
#140=LINE('Line3',#268,#147);
#141=LINE('Line6',#269,#148);
#142=LINE('Line7',#270,#149);
#143=LINE('Line8',#271,#150);
#144=LINE('Line9',#272,#151);
#145=LINE('Line11',#273,#152);
#146=VECTOR('',#223,20.7);
#147=VECTOR('',#224,7.5);
#148=VECTOR('',#225,8.8005385127675);
#149=VECTOR('',#226,1.65506687844374);
#150=VECTOR('',#227,9.5);
#151=VECTOR('',#228,1.5);
#152=VECTOR('',#229,0.346410161513776);
#153=COLOUR_RGB('Medium Maroon',0.6,0.4,0.4);
#154=COLOUR_RGB('Medium Gray',0.501960784313725,0.501960784313725,0.501960784313725);
#155=COLOUR_RGB('Light Gray',0.8,0.8,0.8);
#156=PRESENTATION_LAYER_ASSIGNMENT('1','Layer 1',(#263,#264,#265,#266,#99,
#206,#207,#208,#39,#40));
#157=PRESENTATION_LAYER_ASSIGNMENT('40','Layer 40',(#131,#132,#133,#134,
#135,#136,#137,#138));
#158=STYLED_ITEM('',(#176),#263);
#159=STYLED_ITEM('',(#177),#264);
#160=STYLED_ITEM('',(#178),#265);
#161=STYLED_ITEM('',(#179),#266);
#162=STYLED_ITEM('',(#180),#131);
#163=STYLED_ITEM('',(#181),#132);
#164=STYLED_ITEM('',(#182),#133);
#165=STYLED_ITEM('',(#183),#134);
#166=STYLED_ITEM('',(#184),#135);
#167=STYLED_ITEM('',(#185),#136);
#168=STYLED_ITEM('',(#186),#137);
#169=STYLED_ITEM('',(#187),#138);
#170=STYLED_ITEM('',(#188),#99);
#171=STYLED_ITEM('',(#189),#206);
#172=STYLED_ITEM('',(#190),#207);
#173=STYLED_ITEM('',(#191),#208);
#174=STYLED_ITEM('',(#192),#39);
#175=STYLED_ITEM('',(#193),#40);
#176=PRESENTATION_STYLE_ASSIGNMENT((#194));
#177=PRESENTATION_STYLE_ASSIGNMENT((#195));
#178=PRESENTATION_STYLE_ASSIGNMENT((#196));
#179=PRESENTATION_STYLE_ASSIGNMENT((#197));
#180=PRESENTATION_STYLE_ASSIGNMENT((#107));
#181=PRESENTATION_STYLE_ASSIGNMENT((#108));
#182=PRESENTATION_STYLE_ASSIGNMENT((#109));
#183=PRESENTATION_STYLE_ASSIGNMENT((#110));
#184=PRESENTATION_STYLE_ASSIGNMENT((#111));
#185=PRESENTATION_STYLE_ASSIGNMENT((#112));
#186=PRESENTATION_STYLE_ASSIGNMENT((#113));
#187=PRESENTATION_STYLE_ASSIGNMENT((#114));
#188=PRESENTATION_STYLE_ASSIGNMENT((#115));
#189=PRESENTATION_STYLE_ASSIGNMENT((#116));
#190=PRESENTATION_STYLE_ASSIGNMENT((#117));
#191=PRESENTATION_STYLE_ASSIGNMENT((#118));
#192=PRESENTATION_STYLE_ASSIGNMENT((#29));
#193=PRESENTATION_STYLE_ASSIGNMENT((#30));
#194=POINT_STYLE('',#198,POSITIVE_LENGTH_MEASURE(3.),#202);
#195=POINT_STYLE('',#199,POSITIVE_LENGTH_MEASURE(3.),#153);
#196=POINT_STYLE('',#200,POSITIVE_LENGTH_MEASURE(3.),#153);
#197=POINT_STYLE('',#201,POSITIVE_LENGTH_MEASURE(3.),#153);
#198=PRE_DEFINED_POINT_MARKER_SYMBOL('plus');
#199=PRE_DEFINED_POINT_MARKER_SYMBOL('plus');
#200=PRE_DEFINED_POINT_MARKER_SYMBOL('plus');
#201=PRE_DEFINED_POINT_MARKER_SYMBOL('plus');
#202=DRAUGHTING_PRE_DEFINED_COLOUR('white');
#203=DRAUGHTING_PRE_DEFINED_COLOUR('blue');
#204=AXIS2_PLACEMENT_3D('',#262,#221,#222);
#205=AXIS2_PLACEMENT_3D('',#274,#230,#231);
#206=AXIS2_PLACEMENT_3D('PCS',#288,#232,#233);
#207=AXIS2_PLACEMENT_3D('MCS',#289,#234,#235);
#208=AXIS2_PLACEMENT_3D('CIP',#290,#236,#237);
#209=AXIS2_PLACEMENT_3D('',#291,#238,#239);
#210=AXIS2_PLACEMENT_3D('',#293,#240,#241);
#211=AXIS2_PLACEMENT_3D('',#294,#242,#243);
#212=AXIS2_PLACEMENT_3D('',#296,#244,#245);
#213=AXIS2_PLACEMENT_3D('',#297,#246,#247);
#214=AXIS2_PLACEMENT_3D('',#299,#248,#249);
#215=AXIS2_PLACEMENT_3D('',#300,#250,#251);
#216=AXIS2_PLACEMENT_3D('',#301,#252,#253);
#217=AXIS2_PLACEMENT_3D('',#303,#254,#255);
#218=AXIS2_PLACEMENT_3D('',#305,#256,#257);
#219=AXIS2_PLACEMENT_3D('',#307,#258,#259);
#220=AXIS2_PLACEMENT_3D('',#308,#260,#261);
#221=DIRECTION('',(0.,0.,1.));
#222=DIRECTION('',(1.,0.,0.));
#223=DIRECTION('',(1.39448302609923E-16,0.,-1.));
#224=DIRECTION('',(8.88178419700125E-17,0.,-1.));
#225=DIRECTION('',(1.51384784876219E-16,0.,-1.));
#226=DIRECTION('',(-0.90630778703665,0.,-0.422618261740699));
#227=DIRECTION('',(0.,0.,1.));
#228=DIRECTION('',(1.,0.,0.));
#229=DIRECTION('',(-0.5,0.,0.866025403784438));
#230=DIRECTION('',(0.,-1.,0.));
#231=DIRECTION('',(0.,0.,1.));
#232=DIRECTION('',(0.,0.,1.));
#233=DIRECTION('',(1.,0.,0.));
#234=DIRECTION('',(0.,0.,1.));
#235=DIRECTION('',(1.,0.,0.));
#236=DIRECTION('',(0.,0.,1.));
#237=DIRECTION('',(1.,0.,0.));
#238=DIRECTION('',(0.,0.,-1.));
#239=DIRECTION('',(-1.,0.,0.));
#240=DIRECTION('',(0.,0.,-1.));
#241=DIRECTION('',(-1.,0.,0.));
#242=DIRECTION('',(0.,0.,-1.));
#243=DIRECTION('',(-1.,0.,0.));
#244=DIRECTION('',(0.,0.,-1.));
#245=DIRECTION('',(-1.,0.,0.));
#246=DIRECTION('',(0.,0.,-1.));
#247=DIRECTION('',(-1.,0.,0.));
#248=DIRECTION('',(0.,0.,-1.));
#249=DIRECTION('',(-1.,0.,5.99368634104767E-17));
#250=DIRECTION('',(0.,0.,-1.));
#251=DIRECTION('',(-1.,0.,0.));
#252=DIRECTION('',(0.,0.,-1.));
#253=DIRECTION('',(-1.,0.,0.));
#254=DIRECTION('',(0.,0.,-1.));
#255=DIRECTION('',(-1.,0.,0.));
#256=DIRECTION('',(0.,0.,-1.));
#257=DIRECTION('',(-1.,0.,0.));
#258=DIRECTION('',(0.,0.,1.));
#259=DIRECTION('',(1.,0.,6.46679545866478E-18));
#260=DIRECTION('',(0.,0.,-1.));
#261=DIRECTION('',(-1.,0.,0.));
#262=CARTESIAN_POINT('',(0.,0.,0.));
#263=CARTESIAN_POINT('CRP',(1.5,0.,-37.3005385127675));
#264=CARTESIAN_POINT('',(0.,0.,0.));
#265=CARTESIAN_POINT('',(0.,0.,-21.));
#266=CARTESIAN_POINT('',(0.,0.,-38.));
#267=CARTESIAN_POINT('',(1.5,0.,-0.3));
#268=CARTESIAN_POINT('',(1.5,0.,-21.));
#269=CARTESIAN_POINT('',(1.5,0.,-28.5));
#270=CARTESIAN_POINT('',(1.5,0.,-37.3005385127675));
#271=CARTESIAN_POINT('',(0.,0.,-38.));
#272=CARTESIAN_POINT('',(0.,0.,-28.5));
#273=CARTESIAN_POINT('',(1.5,0.,-0.3));
#274=CARTESIAN_POINT('',(2.5,0.,-21.));
#275=CARTESIAN_POINT('',(1.5,0.,-28.5));
#276=CARTESIAN_POINT('',(1.5,0.,-31.4335128375892));
#277=CARTESIAN_POINT('',(1.5,0.,-34.3670256751783));
#278=CARTESIAN_POINT('',(1.5,0.,-37.3005385127675));
#279=CARTESIAN_POINT('',(1.,0.,-37.533692341845));
#280=CARTESIAN_POINT('',(0.500000000000001,0.,-37.7668461709225));
#281=CARTESIAN_POINT('',(0.,0.,-38.));
#282=CARTESIAN_POINT('',(0.,0.,-34.8333333333333));
#283=CARTESIAN_POINT('',(0.,0.,-31.6666666666667));
#284=CARTESIAN_POINT('',(0.,0.,-28.5));
#285=CARTESIAN_POINT('',(0.5,0.,-28.5));
#286=CARTESIAN_POINT('',(1.,0.,-28.5));
#287=CARTESIAN_POINT('',(1.5,0.,-28.5));
#288=CARTESIAN_POINT('',(0.,0.,0.));
#289=CARTESIAN_POINT('',(0.,0.,-21.));
#290=CARTESIAN_POINT('',(0.,0.,-38.));
#291=CARTESIAN_POINT('',(0.,0.,-28.5));
#292=CARTESIAN_POINT('',(-1.5,0.,-28.5));
#293=CARTESIAN_POINT('',(0.,0.,-28.5));
#294=CARTESIAN_POINT('',(0.,0.,5.42101086242752E-17));
#295=CARTESIAN_POINT('',(-1.32679491924311,0.,5.42101086242752E-17));
#296=CARTESIAN_POINT('',(0.,0.,5.42101086242752E-17));
#297=CARTESIAN_POINT('',(0.,0.,-0.300000000000002));
#298=CARTESIAN_POINT('',(-1.5,0.,-0.300000000000002));
#299=CARTESIAN_POINT('',(0.,0.,-0.300000000000002));
#300=CARTESIAN_POINT('',(0.,0.,0.));
#301=CARTESIAN_POINT('',(0.,0.,-28.5));
#302=CARTESIAN_POINT('',(-1.5,0.,-28.5));
#303=CARTESIAN_POINT('',(0.,0.,-28.5));
#304=CARTESIAN_POINT('',(4.33680868994202E-16,0.,-38.));
#305=CARTESIAN_POINT('',(0.,0.,-37.3005385127675));
#306=CARTESIAN_POINT('',(-1.5,0.,-37.3005385127675));
#307=CARTESIAN_POINT('',(0.,0.,-37.3005385127675));
#308=CARTESIAN_POINT('',(0.,0.,0.));
#309=MECHANICAL_DESIGN_GEOMETRIC_PRESENTATION_REPRESENTATION('',(#158,#159,
#160,#161,#162,#163,#164,#165,#166,#167,#168,#169,#170,#171,#172,#173,#174,
#175),#310);
#310=(
GEOMETRIC_REPRESENTATION_CONTEXT(3)
GLOBAL_UNCERTAINTY_ASSIGNED_CONTEXT((#311))
GLOBAL_UNIT_ASSIGNED_CONTEXT((#317,#313,#312))
REPRESENTATION_CONTEXT('1733304825102','TOP_LEVEL_ASSEMBLY_PART')
);
#311=UNCERTAINTY_MEASURE_WITH_UNIT(LENGTH_MEASURE(2.E-5),#317,
'DISTANCE_ACCURACY_VALUE','Maximum Tolerance applied to model');
#312=(
NAMED_UNIT(*)
SI_UNIT($,.STERADIAN.)
SOLID_ANGLE_UNIT()
);
#313=(
CONVERSION_BASED_UNIT('DEGREE',#315)
NAMED_UNIT(#314)
PLANE_ANGLE_UNIT()
);
#314=DIMENSIONAL_EXPONENTS(0.,0.,0.,0.,0.,0.,0.);
#315=PLANE_ANGLE_MEASURE_WITH_UNIT(PLANE_ANGLE_MEASURE(0.0174532925),#316);
#316=(
NAMED_UNIT(*)
PLANE_ANGLE_UNIT()
SI_UNIT($,.RADIAN.)
);
#317=(
LENGTH_UNIT()
NAMED_UNIT(*)
SI_UNIT(.MILLI.,.METRE.)
);
ENDSEC;
END-ISO-10303-21;
