ISO-10303-21;
HEADER;
/* Generated by software containing ST-Developer
 * from STEP Tools, Inc. (www.steptools.com) 
 */
/* OPTION: using custom schema-name function */

FILE_DESCRIPTION(
/* description */ (''),
/* implementation_level */ '2;1');

FILE_NAME(
/* name */ 'CUT_1.STP',
/* time_stamp */ '2024-11-26T15:52:46+01:00',
/* author */ (''),
/* organization */ ('SMS'),
/* preprocessor_version */ 'ST-DEVELOPER v16.7',
/* originating_system */ 'SIEMENS PLM Software NX 12.0',
/* authorisation */ '');

FILE_SCHEMA (('AUTOMOTIVE_DESIGN { 1 0 10303 214 3 1 1 1 }'));
ENDSEC;

DATA;
#10=CONSTRUCTIVE_GEOMETRY_REPRESENTATION_RELATIONSHIP(
'supplemental geometry','',#26,#11);
#11=CONSTRUCTIVE_GEOMETRY_REPRESENTATION('supplemental geometry',(#168,
#169,#170,#171),#312);
#12=GEOMETRICALLY_BOUNDED_WIREFRAME_SHAPE_REPRESENTATION('CUT_1-None',(#27),
#312);
#13=SHAPE_REPRESENTATION_RELATIONSHIP('None',
'relationship between CUT_1-None and CUT_1-None',#26,#15);
#14=SHAPE_REPRESENTATION_RELATIONSHIP('None',
'relationship between CUT_1-None and CUT_1-None',#26,#12);
#15=ADVANCED_BREP_SHAPE_REPRESENTATION('CUT_1-None',(#33),#312);
#16=SHAPE_DEFINITION_REPRESENTATION(#17,#26);
#17=PRODUCT_DEFINITION_SHAPE('','',#18);
#18=PRODUCT_DEFINITION(' ','',#20,#19);
#19=PRODUCT_DEFINITION_CONTEXT('part definition',#25,'design');
#20=PRODUCT_DEFINITION_FORMATION_WITH_SPECIFIED_SOURCE(' ',' ',#22,
 .NOT_KNOWN.);
#21=PRODUCT_RELATED_PRODUCT_CATEGORY('part','',(#22));
#22=PRODUCT('CUT_1','CUT_1',' ',(#23));
#23=PRODUCT_CONTEXT(' ',#25,'mechanical');
#24=APPLICATION_PROTOCOL_DEFINITION('international standard',
'automotive_design',2010,#25);
#25=APPLICATION_CONTEXT(
'core data for automotive mechanical design processes');
#26=SHAPE_REPRESENTATION('CUT_1-None',(#167),#312);
#27=GEOMETRIC_CURVE_SET('None',(#231,#232,#233,#136));
#28=SURFACE_STYLE_USAGE(.BOTH.,#29);
#29=SURFACE_SIDE_STYLE('',(#30));
#30=SURFACE_STYLE_FILL_AREA(#31);
#31=FILL_AREA_STYLE('',(#32));
#32=FILL_AREA_STYLE_COLOUR('',#166);
#33=MANIFOLD_SOLID_BREP('CUT',#34);
#34=CLOSED_SHELL('',(#44,#45,#46,#47,#48,#49,#50,#51,#52));
#35=(
BOUNDED_SURFACE()
B_SPLINE_SURFACE(3,3,((#282,#283,#284,#285,#286,#287,#288),(#289,#290,#291,
#292,#293,#294,#295),(#296,#297,#298,#299,#300,#301,#302),(#303,#304,#305,
#306,#307,#308,#309)),.UNSPECIFIED.,.F.,.T.,.F.)
B_SPLINE_SURFACE_WITH_KNOTS((4,4),(1,3,3,3,1),(0.,1.),(-0.5,0.,0.5,1.,1.5),
 .UNSPECIFIED.)
GEOMETRIC_REPRESENTATION_ITEM()
RATIONAL_B_SPLINE_SURFACE(((1.,0.333333333333333,0.333333333333333,1.,0.333333333333333,
0.333333333333333,1.),(0.991282746513883,0.330427582171294,0.330427582171294,
0.991282746513883,0.330427582171294,0.330427582171294,0.991282746513883),
(0.991282746513883,0.330427582171294,0.330427582171294,0.991282746513883,
0.330427582171294,0.330427582171294,0.991282746513883),(1.,0.333333333333333,
0.333333333333333,1.,0.333333333333333,0.333333333333333,1.)))
REPRESENTATION_ITEM('')
SURFACE()
);
#36=SPHERICAL_SURFACE('',#185,1.6);
#37=TOROIDAL_SURFACE('',#183,8.08092854600902,0.376);
#38=CONICAL_SURFACE('',#181,8.32261668725116,49.9999999999995);
#39=CONICAL_SURFACE('',#187,8.4,79.);
#40=FACE_OUTER_BOUND('',#75,.T.);
#41=FACE_OUTER_BOUND('',#80,.T.);
#42=PLANE('',#176);
#43=PLANE('',#179);
#44=ADVANCED_FACE('',(#55,#56),#53,.T.);
#45=ADVANCED_FACE('',(#57,#58),#42,.F.);
#46=ADVANCED_FACE('',(#59,#60),#54,.T.);
#47=ADVANCED_FACE('',(#40),#43,.F.);
#48=ADVANCED_FACE('',(#61,#62),#38,.T.);
#49=ADVANCED_FACE('',(#63,#64),#37,.T.);
#50=ADVANCED_FACE('',(#41),#36,.T.);
#51=ADVANCED_FACE('',(#65,#66),#35,.T.);
#52=ADVANCED_FACE('',(#67,#68),#39,.T.);
#53=CYLINDRICAL_SURFACE('',#174,8.4);
#54=CYLINDRICAL_SURFACE('',#178,3.75);
#55=FACE_BOUND('',#69,.T.);
#56=FACE_BOUND('',#70,.T.);
#57=FACE_BOUND('',#71,.T.);
#58=FACE_BOUND('',#72,.T.);
#59=FACE_BOUND('',#73,.T.);
#60=FACE_BOUND('',#74,.T.);
#61=FACE_BOUND('',#76,.T.);
#62=FACE_BOUND('',#77,.T.);
#63=FACE_BOUND('',#78,.T.);
#64=FACE_BOUND('',#79,.T.);
#65=FACE_BOUND('',#81,.T.);
#66=FACE_BOUND('',#82,.T.);
#67=FACE_BOUND('',#83,.T.);
#68=FACE_BOUND('',#84,.T.);
#69=EDGE_LOOP('',(#85));
#70=EDGE_LOOP('',(#86));
#71=EDGE_LOOP('',(#87));
#72=EDGE_LOOP('',(#88));
#73=EDGE_LOOP('',(#89));
#74=EDGE_LOOP('',(#90));
#75=EDGE_LOOP('',(#91));
#76=EDGE_LOOP('',(#92));
#77=EDGE_LOOP('',(#93));
#78=EDGE_LOOP('',(#94));
#79=EDGE_LOOP('',(#95));
#80=EDGE_LOOP('',(#96));
#81=EDGE_LOOP('',(#97));
#82=EDGE_LOOP('',(#98));
#83=EDGE_LOOP('',(#99));
#84=EDGE_LOOP('',(#100));
#85=ORIENTED_EDGE('',*,*,#109,.T.);
#86=ORIENTED_EDGE('',*,*,#110,.F.);
#87=ORIENTED_EDGE('',*,*,#110,.T.);
#88=ORIENTED_EDGE('',*,*,#111,.F.);
#89=ORIENTED_EDGE('',*,*,#111,.T.);
#90=ORIENTED_EDGE('',*,*,#112,.F.);
#91=ORIENTED_EDGE('',*,*,#112,.T.);
#92=ORIENTED_EDGE('',*,*,#113,.F.);
#93=ORIENTED_EDGE('',*,*,#109,.F.);
#94=ORIENTED_EDGE('',*,*,#113,.T.);
#95=ORIENTED_EDGE('',*,*,#114,.T.);
#96=ORIENTED_EDGE('',*,*,#115,.F.);
#97=ORIENTED_EDGE('',*,*,#115,.T.);
#98=ORIENTED_EDGE('',*,*,#116,.F.);
#99=ORIENTED_EDGE('',*,*,#116,.T.);
#100=ORIENTED_EDGE('',*,*,#114,.F.);
#101=VERTEX_POINT('',#260);
#102=VERTEX_POINT('',#262);
#103=VERTEX_POINT('',#265);
#104=VERTEX_POINT('',#268);
#105=VERTEX_POINT('',#272);
#106=VERTEX_POINT('',#275);
#107=VERTEX_POINT('',#278);
#108=VERTEX_POINT('',#281);
#109=EDGE_CURVE('',#101,#101,#117,.T.);
#110=EDGE_CURVE('',#102,#102,#118,.T.);
#111=EDGE_CURVE('',#103,#103,#119,.T.);
#112=EDGE_CURVE('',#104,#104,#120,.T.);
#113=EDGE_CURVE('',#105,#105,#121,.T.);
#114=EDGE_CURVE('',#106,#106,#122,.T.);
#115=EDGE_CURVE('',#107,#107,#123,.T.);
#116=EDGE_CURVE('',#108,#108,#124,.T.);
#117=CIRCLE('',#172,8.4);
#118=CIRCLE('',#173,8.4);
#119=CIRCLE('',#175,3.75);
#120=CIRCLE('',#177,3.75);
#121=CIRCLE('',#180,8.32261668725116);
#122=CIRCLE('',#182,8.1526727282706);
#123=CIRCLE('',#184,0.789127454462925);
#124=CIRCLE('',#186,3.91981197238354);
#125=CURVE_STYLE('',#131,POSITIVE_LENGTH_MEASURE(0.18),#130);
#126=CURVE_STYLE('',#132,POSITIVE_LENGTH_MEASURE(0.18),#164);
#127=CURVE_STYLE('',#133,POSITIVE_LENGTH_MEASURE(0.18),#165);
#128=CURVE_STYLE('',#134,POSITIVE_LENGTH_MEASURE(0.18),#165);
#129=CURVE_STYLE('',#135,POSITIVE_LENGTH_MEASURE(0.18),#165);
#130=DRAUGHTING_PRE_DEFINED_COLOUR('blue');
#131=DRAUGHTING_PRE_DEFINED_CURVE_FONT('continuous');
#132=DRAUGHTING_PRE_DEFINED_CURVE_FONT('continuous');
#133=DRAUGHTING_PRE_DEFINED_CURVE_FONT('continuous');
#134=DRAUGHTING_PRE_DEFINED_CURVE_FONT('continuous');
#135=DRAUGHTING_PRE_DEFINED_CURVE_FONT('continuous');
#136=TRIMMED_CURVE('CUTTING EDGE LINE',#137,(PARAMETER_VALUE(0.)),(
PARAMETER_VALUE(1.)),.T.,.PARAMETER.);
#137=(
BOUNDED_CURVE()
B_SPLINE_CURVE(3,(#234,#235,#236,#237,#238,#239,#240,#241,#242,#243,#244,
#245,#246,#247,#248,#249,#250,#251,#252,#253,#254),.UNSPECIFIED.,.T.,.F.)
B_SPLINE_CURVE_WITH_KNOTS((4,3,2,3,3,3,3,4),(0.,0.291808966073955,0.396562191883382,
0.526456191887072,0.755816418584536,0.883309260682338,0.976947818290524,
1.),.UNSPECIFIED.)
CURVE()
GEOMETRIC_REPRESENTATION_ITEM()
RATIONAL_B_SPLINE_CURVE((0.508406096604211,0.508406096604211,0.508406096604211,
0.508406096604211,0.508406096604211,0.508406096604211,0.508406096604211,
0.508406096604211,0.508406096604211,0.508406096604211,0.508406096604211,
0.508406096604211,0.508406096604211,0.508406096604211,0.508406096604211,
0.503974191786225,0.503974191786225,0.508406096604211,0.497197967798596,
0.497197967798596,0.508406096604211))
REPRESENTATION_ITEM('CUTTING EDGE LINE')
);
#138=PRESENTATION_LAYER_ASSIGNMENT('1','Layer 1',(#231,#232,#233,#136,#168,
#169,#170,#171,#33));
#139=STYLED_ITEM('',(#148),#231);
#140=STYLED_ITEM('',(#149),#232);
#141=STYLED_ITEM('',(#150),#233);
#142=STYLED_ITEM('',(#151),#136);
#143=STYLED_ITEM('',(#152),#168);
#144=STYLED_ITEM('',(#153),#169);
#145=STYLED_ITEM('',(#154),#170);
#146=STYLED_ITEM('',(#155),#171);
#147=STYLED_ITEM('',(#156),#33);
#148=PRESENTATION_STYLE_ASSIGNMENT((#157));
#149=PRESENTATION_STYLE_ASSIGNMENT((#158));
#150=PRESENTATION_STYLE_ASSIGNMENT((#159));
#151=PRESENTATION_STYLE_ASSIGNMENT((#125));
#152=PRESENTATION_STYLE_ASSIGNMENT((#126));
#153=PRESENTATION_STYLE_ASSIGNMENT((#127));
#154=PRESENTATION_STYLE_ASSIGNMENT((#128));
#155=PRESENTATION_STYLE_ASSIGNMENT((#129));
#156=PRESENTATION_STYLE_ASSIGNMENT((#28));
#157=POINT_STYLE('',#160,POSITIVE_LENGTH_MEASURE(3.),#163);
#158=POINT_STYLE('',#161,POSITIVE_LENGTH_MEASURE(3.),#163);
#159=POINT_STYLE('',#162,POSITIVE_LENGTH_MEASURE(3.),#163);
#160=PRE_DEFINED_POINT_MARKER_SYMBOL('plus');
#161=PRE_DEFINED_POINT_MARKER_SYMBOL('plus');
#162=PRE_DEFINED_POINT_MARKER_SYMBOL('plus');
#163=COLOUR_RGB('Medium Maroon',0.6,0.4,0.4);
#164=COLOUR_RGB('Strong Emerald',0.,0.803921568627451,0.525490196078431);
#165=COLOUR_RGB('Pale Sky',0.882337682154574,0.960769054703594,1.);
#166=COLOUR_RGB('TLS_CUT',0.8,0.8,0.8);
#167=AXIS2_PLACEMENT_3D('',#230,#188,#189);
#168=AXIS2_PLACEMENT_3D('YAPP_ABS_CSYS',#255,#190,#191);
#169=AXIS2_PLACEMENT_3D('PCS',#256,#192,#193);
#170=AXIS2_PLACEMENT_3D('MCS',#257,#194,#195);
#171=AXIS2_PLACEMENT_3D('CIP',#258,#196,#197);
#172=AXIS2_PLACEMENT_3D('',#259,#198,#199);
#173=AXIS2_PLACEMENT_3D('',#261,#200,#201);
#174=AXIS2_PLACEMENT_3D('',#263,#202,#203);
#175=AXIS2_PLACEMENT_3D('',#264,#204,#205);
#176=AXIS2_PLACEMENT_3D('',#266,#206,#207);
#177=AXIS2_PLACEMENT_3D('',#267,#208,#209);
#178=AXIS2_PLACEMENT_3D('',#269,#210,#211);
#179=AXIS2_PLACEMENT_3D('',#270,#212,#213);
#180=AXIS2_PLACEMENT_3D('',#271,#214,#215);
#181=AXIS2_PLACEMENT_3D('',#273,#216,#217);
#182=AXIS2_PLACEMENT_3D('',#274,#218,#219);
#183=AXIS2_PLACEMENT_3D('',#276,#220,#221);
#184=AXIS2_PLACEMENT_3D('',#277,#222,#223);
#185=AXIS2_PLACEMENT_3D('',#279,#224,#225);
#186=AXIS2_PLACEMENT_3D('',#280,#226,#227);
#187=AXIS2_PLACEMENT_3D('',#310,#228,#229);
#188=DIRECTION('',(0.,0.,1.));
#189=DIRECTION('',(1.,0.,0.));
#190=DIRECTION('',(0.,0.,1.));
#191=DIRECTION('',(1.,0.,0.));
#192=DIRECTION('',(0.,0.,1.));
#193=DIRECTION('',(1.,0.,0.));
#194=DIRECTION('',(0.,0.,1.));
#195=DIRECTION('',(1.,0.,0.));
#196=DIRECTION('',(0.,0.,1.));
#197=DIRECTION('',(1.,0.,0.));
#198=DIRECTION('',(0.,0.,1.));
#199=DIRECTION('',(-1.,0.,0.));
#200=DIRECTION('',(0.,0.,1.));
#201=DIRECTION('',(1.,0.,0.));
#202=DIRECTION('',(0.,0.,-1.));
#203=DIRECTION('',(1.,0.,0.));
#204=DIRECTION('',(0.,0.,1.));
#205=DIRECTION('',(1.,0.,0.));
#206=DIRECTION('',(0.,0.,-1.));
#207=DIRECTION('',(1.,0.,0.));
#208=DIRECTION('',(0.,0.,1.));
#209=DIRECTION('',(1.,0.,0.));
#210=DIRECTION('',(0.,0.,-1.));
#211=DIRECTION('',(1.,0.,0.));
#212=DIRECTION('',(0.,0.,-1.));
#213=DIRECTION('',(1.,0.,0.));
#214=DIRECTION('',(0.,0.,-1.));
#215=DIRECTION('',(-1.,0.,0.));
#216=DIRECTION('',(0.,0.,1.));
#217=DIRECTION('',(-1.,0.,-1.44551109551242E-17));
#218=DIRECTION('',(0.,0.,1.));
#219=DIRECTION('',(-1.,0.,0.));
#220=DIRECTION('',(0.,0.,1.));
#221=DIRECTION('',(-1.,0.,0.));
#222=DIRECTION('',(0.,0.,1.));
#223=DIRECTION('',(1.,0.,0.));
#224=DIRECTION('',(0.,-6.12323399573675E-17,-1.));
#225=DIRECTION('',(0.,-1.,0.));
#226=DIRECTION('',(0.,0.,1.));
#227=DIRECTION('',(1.,0.,0.));
#228=DIRECTION('',(0.,0.,1.));
#229=DIRECTION('',(-1.,0.,-4.03975693305344E-18));
#230=CARTESIAN_POINT('',(0.,0.,0.));
#231=CARTESIAN_POINT('',(0.,0.,0.));
#232=CARTESIAN_POINT('',(0.,0.,0.));
#233=CARTESIAN_POINT('',(0.,2.63805643996306E-14,-9.052));
#234=CARTESIAN_POINT('',(-4.4639310142759E-15,2.2440382885236E-15,-9.052));
#235=CARTESIAN_POINT('',(-2.64821403312945E-15,2.2440382885236E-15,-5.5699));
#236=CARTESIAN_POINT('',(-8.32497051983005E-16,2.2440382885236E-15,-2.0878));
#237=CARTESIAN_POINT('',(9.35699174431785E-16,2.2440382885236E-15,1.3943));
#238=CARTESIAN_POINT('',(1.25,7.7971908279544E-16,1.3943));
#239=CARTESIAN_POINT('',(2.5,-6.84600122932714E-16,1.3943));
#240=CARTESIAN_POINT('',(5.3,-3.96467514376378E-15,1.3943));
#241=CARTESIAN_POINT('',(6.85,-5.78043095886669E-15,1.3943));
#242=CARTESIAN_POINT('',(8.4,-7.59618677396961E-15,1.3943));
#243=CARTESIAN_POINT('',(8.4,-7.59618677396961E-15,-1.34261126128129));
#244=CARTESIAN_POINT('',(8.4,-7.59618677396961E-15,-4.07952252256258));
#245=CARTESIAN_POINT('',(8.4,-7.59618677396961E-15,-6.81643378384387));
#246=CARTESIAN_POINT('',(6.90660399079452,-5.84674000753971E-15,-7.10672056177826));
#247=CARTESIAN_POINT('',(5.41320798158903,-4.09729324110981E-15,-7.39700733971266));
#248=CARTESIAN_POINT('',(3.91981197238354,-2.34784647467991E-15,-7.68729411764706));
#249=CARTESIAN_POINT('',(2.81815186210616,-1.0573008285489E-15,-7.90143515044747));
#250=CARTESIAN_POINT('',(1.76541336782336,1.75935328081215E-16,-8.29034779251556));
#251=CARTESIAN_POINT('',(0.789127454462924,1.31961069865365E-15,-8.84386129359676));
#252=CARTESIAN_POINT('',(0.547142959366212,1.60308473358049E-15,-8.98105643618292));
#253=CARTESIAN_POINT('',(0.27817081625585,1.91817359355038E-15,-9.052));
#254=CARTESIAN_POINT('',(-4.76396948006701E-15,2.2440382885236E-15,-9.052));
#255=CARTESIAN_POINT('',(0.,0.,0.));
#256=CARTESIAN_POINT('',(0.,0.,0.));
#257=CARTESIAN_POINT('',(0.,0.,0.));
#258=CARTESIAN_POINT('',(0.,2.63805643996306E-14,-9.052));
#259=CARTESIAN_POINT('',(0.,2.2440382885236E-15,-6.7185179158304));
#260=CARTESIAN_POINT('',(-8.4,2.2440382885236E-15,-6.7185179158304));
#261=CARTESIAN_POINT('',(0.,2.2440382885236E-15,1.3943));
#262=CARTESIAN_POINT('',(8.4,2.2440382885236E-15,1.3943));
#263=CARTESIAN_POINT('',(0.,2.2440382885236E-15,15.4434068229715));
#264=CARTESIAN_POINT('',(0.,2.2440382885236E-15,1.3943));
#265=CARTESIAN_POINT('',(3.75,2.2440382885236E-15,1.3943));
#266=CARTESIAN_POINT('',(0.,-3.75,1.3943));
#267=CARTESIAN_POINT('',(0.,2.2440382885236E-15,6.6639));
#268=CARTESIAN_POINT('',(3.75,2.2440382885236E-15,6.6639));
#269=CARTESIAN_POINT('',(0.,2.2440382885236E-15,15.4434068229715));
#270=CARTESIAN_POINT('',(0.,1.27853899854381E-15,6.6639));
#271=CARTESIAN_POINT('',(0.,2.2440382885236E-15,-6.78345022501723));
#272=CARTESIAN_POINT('',(-8.32261668725116,2.2440382885236E-15,-6.78345022501723));
#273=CARTESIAN_POINT('',(0.,2.2440382885236E-15,-6.78345022501723));
#274=CARTESIAN_POINT('',(0.,2.2440382885236E-15,-6.86450933538081));
#275=CARTESIAN_POINT('',(-8.1526727282706,2.2440382885236E-15,-6.86450933538081));
#276=CARTESIAN_POINT('',(0.,2.2440382885236E-15,-6.49541751440449));
#277=CARTESIAN_POINT('',(0.,2.2440382885236E-15,-8.84386129359676));
#278=CARTESIAN_POINT('',(0.789127454462925,2.2440382885236E-15,-8.84386129359676));
#279=CARTESIAN_POINT('',(0.,6.58084697846561E-15,-7.452));
#280=CARTESIAN_POINT('',(0.,2.2440382885236E-15,-7.68729411764706));
#281=CARTESIAN_POINT('',(3.91981197238354,2.2440382885236E-15,-7.68729411764706));
#282=CARTESIAN_POINT('',(0.789127454462921,2.2440382885236E-15,-8.84386129359676));
#283=CARTESIAN_POINT('',(0.789127454462921,-1.57825490892584,-8.84386129359676));
#284=CARTESIAN_POINT('',(-0.789127454462921,-1.57825490892584,-8.84386129359676));
#285=CARTESIAN_POINT('',(-0.789127454462921,2.2440382885236E-15,-8.84386129359676));
#286=CARTESIAN_POINT('',(-0.789127454462921,1.57825490892584,-8.84386129359676));
#287=CARTESIAN_POINT('',(0.789127454462921,1.57825490892584,-8.84386129359676));
#288=CARTESIAN_POINT('',(0.789127454462921,2.2440382885236E-15,-8.84386129359676));
#289=CARTESIAN_POINT('',(1.76541336782336,2.2440382885236E-15,-8.29034779251556));
#290=CARTESIAN_POINT('',(1.76541336782336,-3.53082673564672,-8.29034779251556));
#291=CARTESIAN_POINT('',(-1.76541336782336,-3.53082673564672,-8.29034779251556));
#292=CARTESIAN_POINT('',(-1.76541336782336,2.2440382885236E-15,-8.29034779251556));
#293=CARTESIAN_POINT('',(-1.76541336782336,3.53082673564673,-8.29034779251556));
#294=CARTESIAN_POINT('',(1.76541336782336,3.53082673564673,-8.29034779251556));
#295=CARTESIAN_POINT('',(1.76541336782336,2.2440382885236E-15,-8.29034779251556));
#296=CARTESIAN_POINT('',(2.81815186210616,2.2440382885236E-15,-7.90143515044746));
#297=CARTESIAN_POINT('',(2.81815186210616,-5.63630372421231,-7.90143515044746));
#298=CARTESIAN_POINT('',(-2.81815186210616,-5.63630372421231,-7.90143515044746));
#299=CARTESIAN_POINT('',(-2.81815186210616,2.2440382885236E-15,-7.90143515044746));
#300=CARTESIAN_POINT('',(-2.81815186210616,5.63630372421232,-7.90143515044746));
#301=CARTESIAN_POINT('',(2.81815186210616,5.63630372421232,-7.90143515044746));
#302=CARTESIAN_POINT('',(2.81815186210616,2.2440382885236E-15,-7.90143515044746));
#303=CARTESIAN_POINT('',(3.91981197238354,2.2440382885236E-15,-7.68729411764705));
#304=CARTESIAN_POINT('',(3.91981197238354,-7.83962394476708,-7.68729411764705));
#305=CARTESIAN_POINT('',(-3.91981197238354,-7.83962394476708,-7.68729411764705));
#306=CARTESIAN_POINT('',(-3.91981197238354,2.2440382885236E-15,-7.68729411764705));
#307=CARTESIAN_POINT('',(-3.91981197238354,7.83962394476708,-7.68729411764705));
#308=CARTESIAN_POINT('',(3.91981197238354,7.83962394476708,-7.68729411764705));
#309=CARTESIAN_POINT('',(3.91981197238354,2.2440382885236E-15,-7.68729411764705));
#310=CARTESIAN_POINT('',(0.,2.2440382885236E-15,-6.81643378384387));
#311=MECHANICAL_DESIGN_GEOMETRIC_PRESENTATION_REPRESENTATION('',(#139,#140,
#141,#142,#143,#144,#145,#146,#147),#312);
#312=(
GEOMETRIC_REPRESENTATION_CONTEXT(3)
GLOBAL_UNCERTAINTY_ASSIGNED_CONTEXT((#313))
GLOBAL_UNIT_ASSIGNED_CONTEXT((#319,#315,#314))
REPRESENTATION_CONTEXT('CUT_1','TOP_LEVEL_ASSEMBLY_PART')
);
#313=UNCERTAINTY_MEASURE_WITH_UNIT(LENGTH_MEASURE(0.0254),#319,
'DISTANCE_ACCURACY_VALUE','Maximum Tolerance applied to model');
#314=(
NAMED_UNIT(*)
SI_UNIT($,.STERADIAN.)
SOLID_ANGLE_UNIT()
);
#315=(
CONVERSION_BASED_UNIT('DEGREE',#317)
NAMED_UNIT(#316)
PLANE_ANGLE_UNIT()
);
#316=DIMENSIONAL_EXPONENTS(0.,0.,0.,0.,0.,0.,0.);
#317=PLANE_ANGLE_MEASURE_WITH_UNIT(PLANE_ANGLE_MEASURE(0.0174532925),#318);
#318=(
NAMED_UNIT(*)
PLANE_ANGLE_UNIT()
SI_UNIT($,.RADIAN.)
);
#319=(
LENGTH_UNIT()
NAMED_UNIT(*)
SI_UNIT(.MILLI.,.METRE.)
);
ENDSEC;
END-ISO-10303-21;
