ISO-10303-21;
HEADER;
/* Generated by software containing ST-Developer
 * from STEP Tools, Inc. (www.steptools.com) 
 */
/* OPTION: using custom schema-name function */

FILE_DESCRIPTION(
/* description */ (''),
/* implementation_level */ '2;1');

FILE_NAME(
/* name */ '1732287694859.stp',
/* time_stamp */ '2024-11-22T15:01:43+00:00',
/* author */ (''),
/* organization */ ('SMS'),
/* preprocessor_version */ 'ST-DEVELOPER v16.7',
/* originating_system */ 'SIEMENS PLM Software NX 12.0',
/* authorisation */ '');

FILE_SCHEMA (('AUTOMOTIVE_DESIGN { 1 0 10303 214 3 1 1 1 }'));
ENDSEC;

DATA;
#10=CONSTRUCTIVE_GEOMETRY_REPRESENTATION_RELATIONSHIP(
'supplemental geometry','',#26,#11);
#11=CONSTRUCTIVE_GEOMETRY_REPRESENTATION('supplemental geometry',(#246,
#247,#248),#379);
#12=GEOMETRICALLY_BOUNDED_WIREFRAME_SHAPE_REPRESENTATION(
'462.1-0188-008A0-XM-None',(#27),#379);
#13=SHAPE_REPRESENTATION_RELATIONSHIP('None',
'relationship between 462.1-0188-008A0-XM-None and 462.1-0188-008A0-XM
-None',#26,#15);
#14=SHAPE_REPRESENTATION_RELATIONSHIP('None',
'relationship between 462.1-0188-008A0-XM-None and 462.1-0188-008A0-XM
-None',#26,#12);
#15=ADVANCED_BREP_SHAPE_REPRESENTATION('462.1-0188-008A0-XM-None',(#39,
#40),#379);
#16=SHAPE_DEFINITION_REPRESENTATION(#17,#26);
#17=PRODUCT_DEFINITION_SHAPE('','',#18);
#18=PRODUCT_DEFINITION(' ','',#20,#19);
#19=PRODUCT_DEFINITION_CONTEXT('part definition',#25,'design');
#20=PRODUCT_DEFINITION_FORMATION_WITH_SPECIFIED_SOURCE(' ',' ',#22,
 .NOT_KNOWN.);
#21=PRODUCT_RELATED_PRODUCT_CATEGORY('part','',(#22));
#22=PRODUCT('462.1-0188-008A0-XM','462.1-0188-008A0-XM',' ',(#23));
#23=PRODUCT_CONTEXT(' ',#25,'mechanical');
#24=APPLICATION_PROTOCOL_DEFINITION('international standard',
'automotive_design',2010,#25);
#25=APPLICATION_CONTEXT(
'core data for automotive mechanical design processes');
#26=SHAPE_REPRESENTATION('462.1-0188-008A0-XM-None',(#244),#379);
#27=GEOMETRIC_CURVE_SET('None',(#322,#323,#324,#325,#166,#167,#168,#169,
#170,#171,#172,#173,#174,#129));
#28=VERTEX_LOOP('',#119);
#29=SURFACE_STYLE_USAGE(.BOTH.,#31);
#30=SURFACE_STYLE_USAGE(.BOTH.,#32);
#31=SURFACE_SIDE_STYLE('',(#33));
#32=SURFACE_SIDE_STYLE('',(#34));
#33=SURFACE_STYLE_FILL_AREA(#35);
#34=SURFACE_STYLE_FILL_AREA(#36);
#35=FILL_AREA_STYLE('',(#37));
#36=FILL_AREA_STYLE('',(#38));
#37=FILL_AREA_STYLE_COLOUR('',#192);
#38=FILL_AREA_STYLE_COLOUR('',#193);
#39=MANIFOLD_SOLID_BREP('NOCUT',#41);
#40=MANIFOLD_SOLID_BREP('CUT',#42);
#41=CLOSED_SHELL('',(#64,#65,#66,#67,#68,#69,#70));
#42=CLOSED_SHELL('',(#71,#72,#73));
#43=TOROIDAL_SURFACE('',#260,1.94,0.999999999999999);
#44=CYLINDRICAL_SURFACE('',#256,1.5);
#45=CYLINDRICAL_SURFACE('',#261,0.940000000000002);
#46=CYLINDRICAL_SURFACE('',#266,0.940000000000002);
#47=CONICAL_SURFACE('',#254,1.5,29.9999999999999);
#48=CONICAL_SURFACE('',#258,1.07397459621556,30.0000000000001);
#49=CONICAL_SURFACE('',#265,0.940000000000003,65.0000000000002);
#50=FACE_BOUND('',#82,.T.);
#51=FACE_BOUND('',#83,.T.);
#52=FACE_BOUND('',#84,.T.);
#53=FACE_BOUND('',#85,.T.);
#54=FACE_BOUND('',#86,.T.);
#55=FACE_BOUND('',#87,.T.);
#56=FACE_BOUND('',#88,.T.);
#57=FACE_BOUND('',#89,.T.);
#58=FACE_BOUND('',#90,.T.);
#59=FACE_BOUND('',#91,.T.);
#60=FACE_BOUND('',#28,.T.);
#61=FACE_BOUND('',#93,.T.);
#62=FACE_BOUND('',#94,.T.);
#63=FACE_BOUND('',#95,.T.);
#64=ADVANCED_FACE('',(#77),#74,.T.);
#65=ADVANCED_FACE('',(#78),#75,.F.);
#66=ADVANCED_FACE('',(#50,#51),#47,.T.);
#67=ADVANCED_FACE('',(#52,#53),#44,.T.);
#68=ADVANCED_FACE('',(#54,#55),#48,.T.);
#69=ADVANCED_FACE('',(#56,#57),#43,.F.);
#70=ADVANCED_FACE('',(#58,#59),#45,.T.);
#71=ADVANCED_FACE('',(#79),#76,.F.);
#72=ADVANCED_FACE('',(#60,#61),#49,.T.);
#73=ADVANCED_FACE('',(#62,#63),#46,.T.);
#74=PLANE('',#250);
#75=PLANE('',#252);
#76=PLANE('',#263);
#77=FACE_OUTER_BOUND('',#80,.T.);
#78=FACE_OUTER_BOUND('',#81,.T.);
#79=FACE_OUTER_BOUND('',#92,.T.);
#80=EDGE_LOOP('',(#96));
#81=EDGE_LOOP('',(#97));
#82=EDGE_LOOP('',(#98));
#83=EDGE_LOOP('',(#99));
#84=EDGE_LOOP('',(#100));
#85=EDGE_LOOP('',(#101));
#86=EDGE_LOOP('',(#102));
#87=EDGE_LOOP('',(#103));
#88=EDGE_LOOP('',(#104));
#89=EDGE_LOOP('',(#105));
#90=EDGE_LOOP('',(#106));
#91=EDGE_LOOP('',(#107));
#92=EDGE_LOOP('',(#108));
#93=EDGE_LOOP('',(#109));
#94=EDGE_LOOP('',(#110));
#95=EDGE_LOOP('',(#111));
#96=ORIENTED_EDGE('',*,*,#121,.T.);
#97=ORIENTED_EDGE('',*,*,#122,.F.);
#98=ORIENTED_EDGE('',*,*,#122,.T.);
#99=ORIENTED_EDGE('',*,*,#123,.F.);
#100=ORIENTED_EDGE('',*,*,#123,.T.);
#101=ORIENTED_EDGE('',*,*,#124,.F.);
#102=ORIENTED_EDGE('',*,*,#124,.T.);
#103=ORIENTED_EDGE('',*,*,#125,.F.);
#104=ORIENTED_EDGE('',*,*,#125,.T.);
#105=ORIENTED_EDGE('',*,*,#126,.F.);
#106=ORIENTED_EDGE('',*,*,#126,.T.);
#107=ORIENTED_EDGE('',*,*,#121,.F.);
#108=ORIENTED_EDGE('',*,*,#127,.F.);
#109=ORIENTED_EDGE('',*,*,#128,.T.);
#110=ORIENTED_EDGE('',*,*,#128,.F.);
#111=ORIENTED_EDGE('',*,*,#127,.T.);
#112=VERTEX_POINT('',#352);
#113=VERTEX_POINT('',#355);
#114=VERTEX_POINT('',#358);
#115=VERTEX_POINT('',#361);
#116=VERTEX_POINT('',#364);
#117=VERTEX_POINT('',#367);
#118=VERTEX_POINT('',#371);
#119=VERTEX_POINT('',#373);
#120=VERTEX_POINT('',#375);
#121=EDGE_CURVE('',#112,#112,#131,.T.);
#122=EDGE_CURVE('',#113,#113,#132,.T.);
#123=EDGE_CURVE('',#114,#114,#133,.T.);
#124=EDGE_CURVE('',#115,#115,#134,.T.);
#125=EDGE_CURVE('',#116,#116,#135,.T.);
#126=EDGE_CURVE('',#117,#117,#136,.T.);
#127=EDGE_CURVE('',#118,#118,#137,.T.);
#128=EDGE_CURVE('',#120,#120,#138,.T.);
#129=B_SPLINE_CURVE_WITH_KNOTS('CUTTING PART LINE',3,(#335,#336,#337,#338,
#339,#340,#341,#342,#343,#344,#345,#346,#347),.UNSPECIFIED.,.T.,.F.,(4,
3,3,3,4),(0.,0.433998448960665,0.490678265887339,0.948630640550318,1.),
 .UNSPECIFIED.);
#130=CIRCLE('Arc1',#245,0.999999999999999);
#131=CIRCLE('',#249,0.940000000000002);
#132=CIRCLE('',#251,1.32679491924311);
#133=CIRCLE('',#253,1.5);
#134=CIRCLE('',#255,1.5);
#135=CIRCLE('',#257,1.07397459621556);
#136=CIRCLE('',#259,0.940000000000001);
#137=CIRCLE('',#262,0.940000000000002);
#138=CIRCLE('',#264,0.940000000000003);
#139=INVISIBILITY((#200,#201,#202,#203,#204,#205,#206,#207,#208));
#140=CURVE_STYLE('',#153,POSITIVE_LENGTH_MEASURE(0.18),#242);
#141=CURVE_STYLE('',#154,POSITIVE_LENGTH_MEASURE(0.18),#242);
#142=CURVE_STYLE('',#155,POSITIVE_LENGTH_MEASURE(0.18),#242);
#143=CURVE_STYLE('',#156,POSITIVE_LENGTH_MEASURE(0.18),#242);
#144=CURVE_STYLE('',#157,POSITIVE_LENGTH_MEASURE(0.18),#242);
#145=CURVE_STYLE('',#158,POSITIVE_LENGTH_MEASURE(0.18),#242);
#146=CURVE_STYLE('',#159,POSITIVE_LENGTH_MEASURE(0.18),#242);
#147=CURVE_STYLE('',#160,POSITIVE_LENGTH_MEASURE(0.18),#242);
#148=CURVE_STYLE('',#161,POSITIVE_LENGTH_MEASURE(0.18),#242);
#149=CURVE_STYLE('',#162,POSITIVE_LENGTH_MEASURE(0.18),#243);
#150=CURVE_STYLE('',#163,POSITIVE_LENGTH_MEASURE(0.18),#191);
#151=CURVE_STYLE('',#164,POSITIVE_LENGTH_MEASURE(0.18),#191);
#152=CURVE_STYLE('',#165,POSITIVE_LENGTH_MEASURE(0.18),#191);
#153=DRAUGHTING_PRE_DEFINED_CURVE_FONT('continuous');
#154=DRAUGHTING_PRE_DEFINED_CURVE_FONT('continuous');
#155=DRAUGHTING_PRE_DEFINED_CURVE_FONT('continuous');
#156=DRAUGHTING_PRE_DEFINED_CURVE_FONT('continuous');
#157=DRAUGHTING_PRE_DEFINED_CURVE_FONT('continuous');
#158=DRAUGHTING_PRE_DEFINED_CURVE_FONT('continuous');
#159=DRAUGHTING_PRE_DEFINED_CURVE_FONT('continuous');
#160=DRAUGHTING_PRE_DEFINED_CURVE_FONT('continuous');
#161=DRAUGHTING_PRE_DEFINED_CURVE_FONT('continuous');
#162=DRAUGHTING_PRE_DEFINED_CURVE_FONT('continuous');
#163=DRAUGHTING_PRE_DEFINED_CURVE_FONT('continuous');
#164=DRAUGHTING_PRE_DEFINED_CURVE_FONT('continuous');
#165=DRAUGHTING_PRE_DEFINED_CURVE_FONT('continuous');
#166=TRIMMED_CURVE('Line1',#175,(PARAMETER_VALUE(0.)),(
PARAMETER_VALUE(1.)),.T.,.PARAMETER.);
#167=TRIMMED_CURVE('Line3',#176,(PARAMETER_VALUE(0.)),(
PARAMETER_VALUE(1.)),.T.,.PARAMETER.);
#168=TRIMMED_CURVE('Line6',#177,(PARAMETER_VALUE(0.)),(
PARAMETER_VALUE(1.)),.T.,.PARAMETER.);
#169=TRIMMED_CURVE('Line7',#178,(PARAMETER_VALUE(0.)),(
PARAMETER_VALUE(1.)),.T.,.PARAMETER.);
#170=TRIMMED_CURVE('Line8',#179,(PARAMETER_VALUE(0.)),(
PARAMETER_VALUE(1.)),.T.,.PARAMETER.);
#171=TRIMMED_CURVE('Line9',#180,(PARAMETER_VALUE(0.)),(
PARAMETER_VALUE(1.)),.T.,.PARAMETER.);
#172=TRIMMED_CURVE('Line10',#181,(PARAMETER_VALUE(0.)),(
PARAMETER_VALUE(1.)),.T.,.PARAMETER.);
#173=TRIMMED_CURVE('Line11',#182,(PARAMETER_VALUE(0.)),(
PARAMETER_VALUE(1.)),.T.,.PARAMETER.);
#174=TRIMMED_CURVE('Arc1',#130,(PARAMETER_VALUE(60.)),(
PARAMETER_VALUE(90.)),.T.,.PARAMETER.);
#175=LINE('Line1',#326,#183);
#176=LINE('Line3',#327,#184);
#177=LINE('Line6',#328,#185);
#178=LINE('Line7',#329,#186);
#179=LINE('Line8',#330,#187);
#180=LINE('Line9',#331,#188);
#181=LINE('Line10',#332,#189);
#182=LINE('Line11',#333,#190);
#183=VECTOR('',#269,23.0621463559757);
#184=VECTOR('',#270,5.01995599935465);
#185=VECTOR('',#271,7.9416708013343);
#186=VECTOR('',#272,1.03717524382474);
#187=VECTOR('',#273,8.38);
#188=VECTOR('',#274,0.940000000000002);
#189=VECTOR('',#275,0.852050807568877);
#190=VECTOR('',#276,0.346410161513776);
#191=COLOUR_RGB('Medium Maroon',0.6,0.4,0.4);
#192=COLOUR_RGB('Medium Gray',0.501960784313725,0.501960784313725,0.501960784313725);
#193=COLOUR_RGB('Light Gray',0.8,0.8,0.8);
#194=PRESENTATION_LAYER_ASSIGNMENT('1','Layer 1',(#322,#323,#324,#325,#129,
#246,#247,#248,#39,#40));
#195=PRESENTATION_LAYER_ASSIGNMENT('40','Layer 40',(#166,#167,#168,#169,
#170,#171,#172,#173,#174));
#196=STYLED_ITEM('',(#215),#322);
#197=STYLED_ITEM('',(#216),#323);
#198=STYLED_ITEM('',(#217),#324);
#199=STYLED_ITEM('',(#218),#325);
#200=STYLED_ITEM('',(#219),#166);
#201=STYLED_ITEM('',(#220),#167);
#202=STYLED_ITEM('',(#221),#168);
#203=STYLED_ITEM('',(#222),#169);
#204=STYLED_ITEM('',(#223),#170);
#205=STYLED_ITEM('',(#224),#171);
#206=STYLED_ITEM('',(#225),#172);
#207=STYLED_ITEM('',(#226),#173);
#208=STYLED_ITEM('',(#227),#174);
#209=STYLED_ITEM('',(#228),#129);
#210=STYLED_ITEM('',(#229),#246);
#211=STYLED_ITEM('',(#230),#247);
#212=STYLED_ITEM('',(#231),#248);
#213=STYLED_ITEM('',(#232),#39);
#214=STYLED_ITEM('',(#233),#40);
#215=PRESENTATION_STYLE_ASSIGNMENT((#234));
#216=PRESENTATION_STYLE_ASSIGNMENT((#235));
#217=PRESENTATION_STYLE_ASSIGNMENT((#236));
#218=PRESENTATION_STYLE_ASSIGNMENT((#237));
#219=PRESENTATION_STYLE_ASSIGNMENT((#140));
#220=PRESENTATION_STYLE_ASSIGNMENT((#141));
#221=PRESENTATION_STYLE_ASSIGNMENT((#142));
#222=PRESENTATION_STYLE_ASSIGNMENT((#143));
#223=PRESENTATION_STYLE_ASSIGNMENT((#144));
#224=PRESENTATION_STYLE_ASSIGNMENT((#145));
#225=PRESENTATION_STYLE_ASSIGNMENT((#146));
#226=PRESENTATION_STYLE_ASSIGNMENT((#147));
#227=PRESENTATION_STYLE_ASSIGNMENT((#148));
#228=PRESENTATION_STYLE_ASSIGNMENT((#149));
#229=PRESENTATION_STYLE_ASSIGNMENT((#150));
#230=PRESENTATION_STYLE_ASSIGNMENT((#151));
#231=PRESENTATION_STYLE_ASSIGNMENT((#152));
#232=PRESENTATION_STYLE_ASSIGNMENT((#29));
#233=PRESENTATION_STYLE_ASSIGNMENT((#30));
#234=POINT_STYLE('',#238,POSITIVE_LENGTH_MEASURE(3.),#242);
#235=POINT_STYLE('',#239,POSITIVE_LENGTH_MEASURE(3.),#191);
#236=POINT_STYLE('',#240,POSITIVE_LENGTH_MEASURE(3.),#191);
#237=POINT_STYLE('',#241,POSITIVE_LENGTH_MEASURE(3.),#191);
#238=PRE_DEFINED_POINT_MARKER_SYMBOL('plus');
#239=PRE_DEFINED_POINT_MARKER_SYMBOL('plus');
#240=PRE_DEFINED_POINT_MARKER_SYMBOL('plus');
#241=PRE_DEFINED_POINT_MARKER_SYMBOL('plus');
#242=DRAUGHTING_PRE_DEFINED_COLOUR('white');
#243=DRAUGHTING_PRE_DEFINED_COLOUR('blue');
#244=AXIS2_PLACEMENT_3D('',#321,#267,#268);
#245=AXIS2_PLACEMENT_3D('',#334,#277,#278);
#246=AXIS2_PLACEMENT_3D('PCS',#348,#279,#280);
#247=AXIS2_PLACEMENT_3D('MCS',#349,#281,#282);
#248=AXIS2_PLACEMENT_3D('CIP',#350,#283,#284);
#249=AXIS2_PLACEMENT_3D('',#351,#285,#286);
#250=AXIS2_PLACEMENT_3D('',#353,#287,#288);
#251=AXIS2_PLACEMENT_3D('',#354,#289,#290);
#252=AXIS2_PLACEMENT_3D('',#356,#291,#292);
#253=AXIS2_PLACEMENT_3D('',#357,#293,#294);
#254=AXIS2_PLACEMENT_3D('',#359,#295,#296);
#255=AXIS2_PLACEMENT_3D('',#360,#297,#298);
#256=AXIS2_PLACEMENT_3D('',#362,#299,#300);
#257=AXIS2_PLACEMENT_3D('',#363,#301,#302);
#258=AXIS2_PLACEMENT_3D('',#365,#303,#304);
#259=AXIS2_PLACEMENT_3D('',#366,#305,#306);
#260=AXIS2_PLACEMENT_3D('',#368,#307,#308);
#261=AXIS2_PLACEMENT_3D('',#369,#309,#310);
#262=AXIS2_PLACEMENT_3D('',#370,#311,#312);
#263=AXIS2_PLACEMENT_3D('',#372,#313,#314);
#264=AXIS2_PLACEMENT_3D('',#374,#315,#316);
#265=AXIS2_PLACEMENT_3D('',#376,#317,#318);
#266=AXIS2_PLACEMENT_3D('',#377,#319,#320);
#267=DIRECTION('',(0.,0.,1.));
#268=DIRECTION('',(1.,0.,0.));
#269=DIRECTION('',(1.25165273841802E-16,0.,-1.));
#270=DIRECTION('',(1.10580951782036E-16,0.,-1.));
#271=DIRECTION('',(1.25817444106946E-16,0.,-1.));
#272=DIRECTION('',(-0.90630778703665,0.,-0.422618261740698));
#273=DIRECTION('',(0.,0.,1.));
#274=DIRECTION('',(1.,0.,0.));
#275=DIRECTION('',(-0.5,0.,-0.866025403784439));
#276=DIRECTION('',(-0.5,0.,0.866025403784438));
#277=DIRECTION('',(0.,-1.,0.));
#278=DIRECTION('',(0.,0.,1.));
#279=DIRECTION('',(0.,0.,1.));
#280=DIRECTION('',(1.,0.,0.));
#281=DIRECTION('',(0.,0.,1.));
#282=DIRECTION('',(1.,0.,0.));
#283=DIRECTION('',(0.,0.,1.));
#284=DIRECTION('',(1.,0.,0.));
#285=DIRECTION('',(0.,0.,-1.));
#286=DIRECTION('',(-1.,0.,0.));
#287=DIRECTION('',(0.,0.,-1.));
#288=DIRECTION('',(-1.,0.,0.));
#289=DIRECTION('',(0.,0.,-1.));
#290=DIRECTION('',(-1.,0.,0.));
#291=DIRECTION('',(0.,0.,-1.));
#292=DIRECTION('',(-1.,0.,0.));
#293=DIRECTION('',(0.,0.,-1.));
#294=DIRECTION('',(-1.,0.,0.));
#295=DIRECTION('',(0.,0.,-1.));
#296=DIRECTION('',(-1.,0.,5.99368634104767E-17));
#297=DIRECTION('',(0.,0.,-1.));
#298=DIRECTION('',(-1.,0.,0.));
#299=DIRECTION('',(0.,0.,-1.));
#300=DIRECTION('',(-1.,0.,0.));
#301=DIRECTION('',(0.,0.,-1.));
#302=DIRECTION('',(-1.,0.,0.));
#303=DIRECTION('',(0.,0.,1.));
#304=DIRECTION('',(1.,0.,-1.19962017125899E-17));
#305=DIRECTION('',(0.,0.,-1.));
#306=DIRECTION('',(-1.,0.,0.));
#307=DIRECTION('',(0.,0.,-1.));
#308=DIRECTION('',(-1.,0.,0.));
#309=DIRECTION('',(0.,0.,-1.));
#310=DIRECTION('',(-1.,0.,0.));
#311=DIRECTION('',(0.,0.,-1.));
#312=DIRECTION('',(-1.,0.,0.));
#313=DIRECTION('',(0.,0.,-1.));
#314=DIRECTION('',(-1.,0.,0.));
#315=DIRECTION('',(0.,0.,-1.));
#316=DIRECTION('',(-1.,0.,0.));
#317=DIRECTION('',(0.,0.,1.));
#318=DIRECTION('',(1.,0.,-9.70272511182771E-18));
#319=DIRECTION('',(0.,0.,-1.));
#320=DIRECTION('',(-1.,0.,0.));
#321=CARTESIAN_POINT('',(0.,0.,0.));
#322=CARTESIAN_POINT('CRP',(0.940000000000003,0.,-37.5616708013343));
#323=CARTESIAN_POINT('',(0.,0.,0.));
#324=CARTESIAN_POINT('',(0.,0.,-23.3621463559757));
#325=CARTESIAN_POINT('',(0.,0.,-38.));
#326=CARTESIAN_POINT('',(1.5,0.,-0.3));
#327=CARTESIAN_POINT('',(0.940000000000001,0.,-24.6000440006454));
#328=CARTESIAN_POINT('',(0.940000000000002,0.,-29.62));
#329=CARTESIAN_POINT('',(0.940000000000003,0.,-37.5616708013343));
#330=CARTESIAN_POINT('',(0.,0.,-38.));
#331=CARTESIAN_POINT('',(0.,0.,-29.62));
#332=CARTESIAN_POINT('',(1.5,0.,-23.3621463559757));
#333=CARTESIAN_POINT('',(1.5,0.,-0.3));
#334=CARTESIAN_POINT('',(1.94,0.,-24.6000440006454));
#335=CARTESIAN_POINT('',(0.940000000000002,0.,-29.62));
#336=CARTESIAN_POINT('',(0.940000000000002,0.,-32.2672236004448));
#337=CARTESIAN_POINT('',(0.940000000000002,0.,-34.9144472008895));
#338=CARTESIAN_POINT('',(0.940000000000003,0.,-37.5616708013343));
#339=CARTESIAN_POINT('',(0.626666666666668,0.,-37.7077805342229));
#340=CARTESIAN_POINT('',(0.313333333333334,0.,-37.8538902671114));
#341=CARTESIAN_POINT('',(0.,0.,-38.));
#342=CARTESIAN_POINT('',(0.,0.,-35.2066666666667));
#343=CARTESIAN_POINT('',(0.,0.,-32.4133333333333));
#344=CARTESIAN_POINT('',(0.,0.,-29.62));
#345=CARTESIAN_POINT('',(0.313333333333334,0.,-29.62));
#346=CARTESIAN_POINT('',(0.626666666666668,0.,-29.62));
#347=CARTESIAN_POINT('',(0.940000000000002,0.,-29.62));
#348=CARTESIAN_POINT('',(0.,0.,0.));
#349=CARTESIAN_POINT('',(0.,0.,-23.3621463559757));
#350=CARTESIAN_POINT('',(0.,0.,-38.));
#351=CARTESIAN_POINT('',(0.,0.,-29.62));
#352=CARTESIAN_POINT('',(-0.940000000000002,0.,-29.62));
#353=CARTESIAN_POINT('',(0.,0.,-29.62));
#354=CARTESIAN_POINT('',(0.,0.,5.42101086242752E-17));
#355=CARTESIAN_POINT('',(-1.32679491924311,0.,5.42101086242752E-17));
#356=CARTESIAN_POINT('',(0.,0.,5.42101086242752E-17));
#357=CARTESIAN_POINT('',(0.,0.,-0.300000000000002));
#358=CARTESIAN_POINT('',(-1.5,0.,-0.300000000000002));
#359=CARTESIAN_POINT('',(0.,0.,-0.300000000000002));
#360=CARTESIAN_POINT('',(0.,0.,-23.3621463559757));
#361=CARTESIAN_POINT('',(-1.5,0.,-23.3621463559757));
#362=CARTESIAN_POINT('',(0.,0.,0.));
#363=CARTESIAN_POINT('',(0.,0.,-24.1000440006454));
#364=CARTESIAN_POINT('',(-1.07397459621556,0.,-24.1000440006454));
#365=CARTESIAN_POINT('',(0.,0.,-24.1000440006454));
#366=CARTESIAN_POINT('',(0.,0.,-24.6000440006454));
#367=CARTESIAN_POINT('',(-0.940000000000001,0.,-24.6000440006454));
#368=CARTESIAN_POINT('',(0.,0.,-24.6000440006454));
#369=CARTESIAN_POINT('',(0.,0.,0.));
#370=CARTESIAN_POINT('',(0.,0.,-29.62));
#371=CARTESIAN_POINT('',(-0.940000000000002,0.,-29.62));
#372=CARTESIAN_POINT('',(0.,0.,-29.62));
#373=CARTESIAN_POINT('',(2.16840434497101E-16,0.,-38.));
#374=CARTESIAN_POINT('',(0.,0.,-37.5616708013343));
#375=CARTESIAN_POINT('',(-0.940000000000003,0.,-37.5616708013343));
#376=CARTESIAN_POINT('',(0.,0.,-37.5616708013343));
#377=CARTESIAN_POINT('',(0.,0.,0.));
#378=MECHANICAL_DESIGN_GEOMETRIC_PRESENTATION_REPRESENTATION('',(#196,#197,
#198,#199,#200,#201,#202,#203,#204,#205,#206,#207,#208,#209,#210,#211,#212,
#213,#214),#379);
#379=(
GEOMETRIC_REPRESENTATION_CONTEXT(3)
GLOBAL_UNCERTAINTY_ASSIGNED_CONTEXT((#380))
GLOBAL_UNIT_ASSIGNED_CONTEXT((#386,#382,#381))
REPRESENTATION_CONTEXT('1732287694859','TOP_LEVEL_ASSEMBLY_PART')
);
#380=UNCERTAINTY_MEASURE_WITH_UNIT(LENGTH_MEASURE(2.E-5),#386,
'DISTANCE_ACCURACY_VALUE','Maximum Tolerance applied to model');
#381=(
NAMED_UNIT(*)
SI_UNIT($,.STERADIAN.)
SOLID_ANGLE_UNIT()
);
#382=(
CONVERSION_BASED_UNIT('DEGREE',#384)
NAMED_UNIT(#383)
PLANE_ANGLE_UNIT()
);
#383=DIMENSIONAL_EXPONENTS(0.,0.,0.,0.,0.,0.,0.);
#384=PLANE_ANGLE_MEASURE_WITH_UNIT(PLANE_ANGLE_MEASURE(0.0174532925),#385);
#385=(
NAMED_UNIT(*)
PLANE_ANGLE_UNIT()
SI_UNIT($,.RADIAN.)
);
#386=(
LENGTH_UNIT()
NAMED_UNIT(*)
SI_UNIT(.MILLI.,.METRE.)
);
ENDSEC;
END-ISO-10303-21;
