ISO-10303-21;
HEADER;
/* Generated by software containing ST-Developer
 * from STEP Tools, Inc. (www.steptools.com) 
 */
/* OPTION: using custom schema-name function */

FILE_DESCRIPTION(
/* description */ (''),
/* implementation_level */ '2;1');

FILE_NAME(
/* name */ '3962_1_3D.STP',
/* time_stamp */ '2024-07-24T07:32:00+02:00',
/* author */ (''),
/* organization */ ('SMS'),
/* preprocessor_version */ 'ST-DEVELOPER v16.7',
/* originating_system */ 'SIEMENS PLM Software NX 12.0',
/* authorisation */ '');

FILE_SCHEMA (('AUTOMOTIVE_DESIGN { 1 0 10303 214 3 1 1 1 }'));
ENDSEC;

DATA;
#10=CONSTRUCTIVE_GEOMETRY_REPRESENTATION_RELATIONSHIP(
'supplemental geometry','',#26,#11);
#11=CONSTRUCTIVE_GEOMETRY_REPRESENTATION('supplemental geometry',(#173,
#174,#175),#294);
#12=GEOMETRICALLY_BOUNDED_WIREFRAME_SHAPE_REPRESENTATION(
'3962_1_3D-None',(#27),#294);
#13=SHAPE_REPRESENTATION_RELATIONSHIP('None',
'relationship between 3962_1_3D-None and 3962_1_3D-None',#26,#15);
#14=SHAPE_REPRESENTATION_RELATIONSHIP('None',
'relationship between 3962_1_3D-None and 3962_1_3D-None',#26,#12);
#15=ADVANCED_BREP_SHAPE_REPRESENTATION('3962_1_3D-None',(#41,#42),#294);
#16=SHAPE_DEFINITION_REPRESENTATION(#17,#26);
#17=PRODUCT_DEFINITION_SHAPE('','',#18);
#18=PRODUCT_DEFINITION(' ','',#20,#19);
#19=PRODUCT_DEFINITION_CONTEXT('part definition',#25,'design');
#20=PRODUCT_DEFINITION_FORMATION_WITH_SPECIFIED_SOURCE(' ',' ',#22,
 .NOT_KNOWN.);
#21=PRODUCT_RELATED_PRODUCT_CATEGORY('part','',(#22));
#22=PRODUCT('3962_1_3D','3962_1_3D',' ',(#23));
#23=PRODUCT_CONTEXT(' ',#25,'mechanical');
#24=APPLICATION_PROTOCOL_DEFINITION('international standard',
'automotive_design',2010,#25);
#25=APPLICATION_CONTEXT(
'core data for automotive mechanical design processes');
#26=SHAPE_REPRESENTATION('3962_1_3D-None',(#172),#294);
#27=GEOMETRIC_CURVE_SET('None',(#239,#240,#147));
#28=VERTEX_LOOP('',#121);
#29=SURFACE_STYLE_USAGE(.BOTH.,#31);
#30=SURFACE_STYLE_USAGE(.BOTH.,#32);
#31=SURFACE_SIDE_STYLE('',(#33));
#32=SURFACE_SIDE_STYLE('',(#34));
#33=SURFACE_STYLE_FILL_AREA(#35);
#34=SURFACE_STYLE_FILL_AREA(#36);
#35=FILL_AREA_STYLE('',(#37));
#36=FILL_AREA_STYLE('',(#38));
#37=FILL_AREA_STYLE_COLOUR('',#39);
#38=FILL_AREA_STYLE_COLOUR('',#40);
#39=COLOUR_RGB('TLS_NOCUT',0.499992370489052,0.499992370489052,0.499992370489052);
#40=COLOUR_RGB('TLS_CUT',0.8,0.8,0.8);
#41=MANIFOLD_SOLID_BREP('NOCUT',#43);
#42=MANIFOLD_SOLID_BREP('CUT',#44);
#43=CLOSED_SHELL('',(#66,#67,#68,#69));
#44=CLOSED_SHELL('',(#70,#71,#72,#73,#74,#75));
#45=CONICAL_SURFACE('',#182,10.,45.0000000000001);
#46=CONICAL_SURFACE('',#188,7.75075,2.99999999999999);
#47=CONICAL_SURFACE('',#189,7.8,45.);
#48=CONICAL_SURFACE('',#191,9.2370555648813E-14,73.3823335819446);
#49=CONICAL_SURFACE('',#192,7.81250000000001,0.0358098575329507);
#50=CYLINDRICAL_SURFACE('',#179,10.0000000000088);
#51=CYLINDRICAL_SURFACE('',#185,10.0000000000088);
#52=FACE_BOUND('',#83,.T.);
#53=FACE_BOUND('',#84,.T.);
#54=FACE_BOUND('',#86,.T.);
#55=FACE_BOUND('',#87,.T.);
#56=FACE_BOUND('',#88,.T.);
#57=FACE_BOUND('',#89,.T.);
#58=FACE_BOUND('',#90,.T.);
#59=FACE_BOUND('',#91,.T.);
#60=FACE_BOUND('',#92,.T.);
#61=FACE_BOUND('',#93,.T.);
#62=FACE_BOUND('',#28,.T.);
#63=FACE_BOUND('',#94,.T.);
#64=FACE_BOUND('',#95,.T.);
#65=FACE_BOUND('',#96,.T.);
#66=ADVANCED_FACE('',(#79),#76,.T.);
#67=ADVANCED_FACE('',(#52,#53),#50,.T.);
#68=ADVANCED_FACE('',(#80),#77,.T.);
#69=ADVANCED_FACE('',(#54,#55),#45,.T.);
#70=ADVANCED_FACE('',(#56,#57),#51,.T.);
#71=ADVANCED_FACE('',(#58,#59),#46,.T.);
#72=ADVANCED_FACE('',(#60,#61),#47,.T.);
#73=ADVANCED_FACE('',(#62,#63),#48,.T.);
#74=ADVANCED_FACE('',(#64,#65),#49,.T.);
#75=ADVANCED_FACE('',(#81),#78,.F.);
#76=PLANE('',#177);
#77=PLANE('',#181);
#78=PLANE('',#193);
#79=FACE_OUTER_BOUND('',#82,.T.);
#80=FACE_OUTER_BOUND('',#85,.T.);
#81=FACE_OUTER_BOUND('',#97,.T.);
#82=EDGE_LOOP('',(#98));
#83=EDGE_LOOP('',(#99));
#84=EDGE_LOOP('',(#100));
#85=EDGE_LOOP('',(#101));
#86=EDGE_LOOP('',(#102));
#87=EDGE_LOOP('',(#103));
#88=EDGE_LOOP('',(#104));
#89=EDGE_LOOP('',(#105));
#90=EDGE_LOOP('',(#106));
#91=EDGE_LOOP('',(#107));
#92=EDGE_LOOP('',(#108));
#93=EDGE_LOOP('',(#109));
#94=EDGE_LOOP('',(#110));
#95=EDGE_LOOP('',(#111));
#96=EDGE_LOOP('',(#112));
#97=EDGE_LOOP('',(#113));
#98=ORIENTED_EDGE('',*,*,#123,.T.);
#99=ORIENTED_EDGE('',*,*,#124,.T.);
#100=ORIENTED_EDGE('',*,*,#123,.F.);
#101=ORIENTED_EDGE('',*,*,#125,.F.);
#102=ORIENTED_EDGE('',*,*,#125,.T.);
#103=ORIENTED_EDGE('',*,*,#124,.F.);
#104=ORIENTED_EDGE('',*,*,#126,.T.);
#105=ORIENTED_EDGE('',*,*,#127,.F.);
#106=ORIENTED_EDGE('',*,*,#128,.T.);
#107=ORIENTED_EDGE('',*,*,#129,.T.);
#108=ORIENTED_EDGE('',*,*,#128,.F.);
#109=ORIENTED_EDGE('',*,*,#127,.T.);
#110=ORIENTED_EDGE('',*,*,#130,.T.);
#111=ORIENTED_EDGE('',*,*,#130,.F.);
#112=ORIENTED_EDGE('',*,*,#129,.F.);
#113=ORIENTED_EDGE('',*,*,#126,.F.);
#114=VERTEX_POINT('',#267);
#115=VERTEX_POINT('',#270);
#116=VERTEX_POINT('',#273);
#117=VERTEX_POINT('',#277);
#118=VERTEX_POINT('',#279);
#119=VERTEX_POINT('',#282);
#120=VERTEX_POINT('',#284);
#121=VERTEX_POINT('',#287);
#122=VERTEX_POINT('',#289);
#123=EDGE_CURVE('',#114,#114,#131,.T.);
#124=EDGE_CURVE('',#115,#115,#132,.T.);
#125=EDGE_CURVE('',#116,#116,#133,.T.);
#126=EDGE_CURVE('',#117,#117,#134,.T.);
#127=EDGE_CURVE('',#118,#118,#135,.T.);
#128=EDGE_CURVE('',#119,#119,#136,.T.);
#129=EDGE_CURVE('',#120,#120,#137,.T.);
#130=EDGE_CURVE('',#122,#122,#138,.T.);
#131=CIRCLE('',#176,10.0000000000088);
#132=CIRCLE('',#178,10.);
#133=CIRCLE('',#180,6.745);
#134=CIRCLE('',#183,10.0000000000088);
#135=CIRCLE('',#184,10.0000000000088);
#136=CIRCLE('',#186,7.75075);
#137=CIRCLE('',#187,7.77102254576041);
#138=CIRCLE('',#190,7.80000000000001);
#139=CURVE_STYLE('',#143,POSITIVE_LENGTH_MEASURE(0.18),#169);
#140=CURVE_STYLE('',#144,POSITIVE_LENGTH_MEASURE(0.13),#171);
#141=CURVE_STYLE('',#145,POSITIVE_LENGTH_MEASURE(0.13),#171);
#142=CURVE_STYLE('',#146,POSITIVE_LENGTH_MEASURE(0.13),#171);
#143=DRAUGHTING_PRE_DEFINED_CURVE_FONT('continuous');
#144=DRAUGHTING_PRE_DEFINED_CURVE_FONT('continuous');
#145=DRAUGHTING_PRE_DEFINED_CURVE_FONT('continuous');
#146=DRAUGHTING_PRE_DEFINED_CURVE_FONT('continuous');
#147=B_SPLINE_CURVE_WITH_KNOTS('CUTTING PART LINE',3,(#241,#242,#243,#244,
#245,#246,#247,#248,#249,#250,#251,#252,#253,#254,#255,#256,#257,#258,#259,
#260,#261,#262),.UNSPECIFIED.,.T.,.F.,(4,3,3,3,3,3,3,4),(0.,0.429884087244132,
0.498055600071843,0.886349351077185,0.889593406243033,0.916233321079207,
0.916250908388373,1.),.UNSPECIFIED.);
#148=PRESENTATION_LAYER_ASSIGNMENT('1','Layer 1',(#239,#240,#147,#173,#174,
#175,#41,#42));
#149=STYLED_ITEM('',(#157),#239);
#150=STYLED_ITEM('',(#158),#240);
#151=STYLED_ITEM('',(#159),#147);
#152=STYLED_ITEM('',(#160),#173);
#153=STYLED_ITEM('',(#161),#174);
#154=STYLED_ITEM('',(#162),#175);
#155=STYLED_ITEM('',(#163),#41);
#156=STYLED_ITEM('',(#164),#42);
#157=PRESENTATION_STYLE_ASSIGNMENT((#165));
#158=PRESENTATION_STYLE_ASSIGNMENT((#166));
#159=PRESENTATION_STYLE_ASSIGNMENT((#139));
#160=PRESENTATION_STYLE_ASSIGNMENT((#140));
#161=PRESENTATION_STYLE_ASSIGNMENT((#141));
#162=PRESENTATION_STYLE_ASSIGNMENT((#142));
#163=PRESENTATION_STYLE_ASSIGNMENT((#29));
#164=PRESENTATION_STYLE_ASSIGNMENT((#30));
#165=POINT_STYLE('',#167,POSITIVE_LENGTH_MEASURE(3.),#169);
#166=POINT_STYLE('',#168,POSITIVE_LENGTH_MEASURE(3.),#170);
#167=PRE_DEFINED_POINT_MARKER_SYMBOL('plus');
#168=PRE_DEFINED_POINT_MARKER_SYMBOL('plus');
#169=DRAUGHTING_PRE_DEFINED_COLOUR('blue');
#170=DRAUGHTING_PRE_DEFINED_COLOUR('white');
#171=DRAUGHTING_PRE_DEFINED_COLOUR('green');
#172=AXIS2_PLACEMENT_3D('',#238,#194,#195);
#173=AXIS2_PLACEMENT_3D('PCS',#263,#196,#197);
#174=AXIS2_PLACEMENT_3D('MCS',#264,#198,#199);
#175=AXIS2_PLACEMENT_3D('CIP',#265,#200,#201);
#176=AXIS2_PLACEMENT_3D('',#266,#202,#203);
#177=AXIS2_PLACEMENT_3D('',#268,#204,#205);
#178=AXIS2_PLACEMENT_3D('',#269,#206,#207);
#179=AXIS2_PLACEMENT_3D('',#271,#208,#209);
#180=AXIS2_PLACEMENT_3D('',#272,#210,#211);
#181=AXIS2_PLACEMENT_3D('',#274,#212,#213);
#182=AXIS2_PLACEMENT_3D('',#275,#214,#215);
#183=AXIS2_PLACEMENT_3D('',#276,#216,#217);
#184=AXIS2_PLACEMENT_3D('',#278,#218,#219);
#185=AXIS2_PLACEMENT_3D('',#280,#220,#221);
#186=AXIS2_PLACEMENT_3D('',#281,#222,#223);
#187=AXIS2_PLACEMENT_3D('',#283,#224,#225);
#188=AXIS2_PLACEMENT_3D('',#285,#226,#227);
#189=AXIS2_PLACEMENT_3D('',#286,#228,#229);
#190=AXIS2_PLACEMENT_3D('',#288,#230,#231);
#191=AXIS2_PLACEMENT_3D('',#290,#232,#233);
#192=AXIS2_PLACEMENT_3D('',#291,#234,#235);
#193=AXIS2_PLACEMENT_3D('',#292,#236,#237);
#194=DIRECTION('',(0.,0.,1.));
#195=DIRECTION('',(1.,0.,0.));
#196=DIRECTION('',(0.,0.,1.));
#197=DIRECTION('',(1.,0.,0.));
#198=DIRECTION('',(0.,0.,1.));
#199=DIRECTION('',(1.,0.,0.));
#200=DIRECTION('',(0.,0.,1.));
#201=DIRECTION('',(1.,0.,0.));
#202=DIRECTION('',(0.,0.,-1.));
#203=DIRECTION('',(1.,0.,0.));
#204=DIRECTION('',(0.,0.,-1.));
#205=DIRECTION('',(1.,0.,0.));
#206=DIRECTION('',(0.,0.,-1.));
#207=DIRECTION('',(1.,0.,0.));
#208=DIRECTION('',(0.,0.,1.));
#209=DIRECTION('',(-1.,0.,0.));
#210=DIRECTION('',(0.,0.,-1.));
#211=DIRECTION('',(1.,0.,0.));
#212=DIRECTION('',(0.,0.,1.));
#213=DIRECTION('',(-1.,0.,0.));
#214=DIRECTION('',(0.,0.,-1.));
#215=DIRECTION('',(1.,0.,-1.37403839681331E-17));
#216=DIRECTION('',(0.,0.,-1.));
#217=DIRECTION('',(1.,0.,0.));
#218=DIRECTION('',(0.,0.,-1.));
#219=DIRECTION('',(-1.,0.,0.));
#220=DIRECTION('',(0.,0.,1.));
#221=DIRECTION('',(-1.,0.,0.));
#222=DIRECTION('',(0.,0.,-1.));
#223=DIRECTION('',(-1.,0.,0.));
#224=DIRECTION('',(0.,0.,1.));
#225=DIRECTION('',(1.,0.,0.));
#226=DIRECTION('',(0.,0.,-1.));
#227=DIRECTION('',(1.,0.,-6.92060858528668E-16));
#228=DIRECTION('',(0.,0.,1.));
#229=DIRECTION('',(-1.,0.,-4.13111365582887E-17));
#230=DIRECTION('',(0.,0.,-1.));
#231=DIRECTION('',(-1.,0.,0.));
#232=DIRECTION('',(0.,0.,1.));
#233=DIRECTION('',(-1.,0.,8.28361595841309E-18));
#234=DIRECTION('',(0.,0.,-1.));
#235=DIRECTION('',(1.,0.,-3.28954970259295E-15));
#236=DIRECTION('',(0.,0.,-1.));
#237=DIRECTION('',(1.,0.,0.));
#238=CARTESIAN_POINT('',(0.,0.,0.));
#239=CARTESIAN_POINT('CRP',(7.8,0.,-139.6721));
#240=CARTESIAN_POINT('',(0.,0.,-142.));
#241=CARTESIAN_POINT('',(0.,0.,-90.67));
#242=CARTESIAN_POINT('',(0.,0.,-107.78));
#243=CARTESIAN_POINT('',(0.,0.,-124.89));
#244=CARTESIAN_POINT('',(0.,0.,-142.));
#245=CARTESIAN_POINT('',(2.60000000000175,0.,-141.224033333333));
#246=CARTESIAN_POINT('',(5.20000000000349,0.,-140.448066666666));
#247=CARTESIAN_POINT('',(7.80000000000524,0.,-139.672099999999));
#248=CARTESIAN_POINT('',(7.79034084858681,0.,-124.217457738888));
#249=CARTESIAN_POINT('',(7.78068169717361,0.,-108.762815477775));
#250=CARTESIAN_POINT('',(7.77102254576041,0.,-93.3081732166627));
#251=CARTESIAN_POINT('',(7.76426503050694,0.,-93.1792321444418));
#252=CARTESIAN_POINT('',(7.75750751525347,0.,-93.0502910722209));
#253=CARTESIAN_POINT('',(7.75075,0.,-92.9213500000001));
#254=CARTESIAN_POINT('',(8.50050000000292,0.,-92.1715999999972));
#255=CARTESIAN_POINT('',(9.25025000000583,0.,-91.4218499999943));
#256=CARTESIAN_POINT('',(10.0000000000088,0.,-90.6720999999913));
#257=CARTESIAN_POINT('',(10.0000000000088,0.,-90.6713999999942));
#258=CARTESIAN_POINT('',(10.0000000000088,0.,-90.6706999999971));
#259=CARTESIAN_POINT('',(10.0000000000088,0.,-90.67));
#260=CARTESIAN_POINT('',(6.6666666666725,0.,-90.67));
#261=CARTESIAN_POINT('',(3.33333333333625,0.,-90.67));
#262=CARTESIAN_POINT('',(0.,0.,-90.67));
#263=CARTESIAN_POINT('',(0.,0.,0.));
#264=CARTESIAN_POINT('',(0.,0.,-50.));
#265=CARTESIAN_POINT('',(0.,0.,-142.));
#266=CARTESIAN_POINT('',(0.,0.,-90.67));
#267=CARTESIAN_POINT('',(10.0000000000088,0.,-90.67));
#268=CARTESIAN_POINT('',(0.,0.,-90.67));
#269=CARTESIAN_POINT('',(0.,0.,-3.25499999999999));
#270=CARTESIAN_POINT('',(10.,0.,-3.25499999999999));
#271=CARTESIAN_POINT('',(0.,0.,18.5639167741778));
#272=CARTESIAN_POINT('',(0.,0.,0.));
#273=CARTESIAN_POINT('',(6.745,0.,0.));
#274=CARTESIAN_POINT('',(6.745,0.,4.44089209850063E-16));
#275=CARTESIAN_POINT('',(0.,0.,-3.25499999999999));
#276=CARTESIAN_POINT('',(0.,0.,-90.67));
#277=CARTESIAN_POINT('',(10.0000000000088,0.,-90.67));
#278=CARTESIAN_POINT('',(0.,0.,-90.6720999999913));
#279=CARTESIAN_POINT('',(-10.0000000000088,0.,-90.6720999999913));
#280=CARTESIAN_POINT('',(0.,0.,18.5639167741778));
#281=CARTESIAN_POINT('',(0.,0.,-92.9213500000001));
#282=CARTESIAN_POINT('',(-7.75075,0.,-92.9213500000001));
#283=CARTESIAN_POINT('',(0.,0.,-93.3081732166626));
#284=CARTESIAN_POINT('',(7.77102254576041,0.,-93.3081732166626));
#285=CARTESIAN_POINT('',(0.,0.,-92.9213500000001));
#286=CARTESIAN_POINT('',(0.,0.,-92.8721000000001));
#287=CARTESIAN_POINT('',(9.2370555648813E-14,0.,-142.));
#288=CARTESIAN_POINT('',(0.,0.,-139.672099999999));
#289=CARTESIAN_POINT('',(-7.80000000000001,0.,-139.672099999999));
#290=CARTESIAN_POINT('',(0.,0.,-142.));
#291=CARTESIAN_POINT('',(0.,0.,-159.6721));
#292=CARTESIAN_POINT('',(0.,0.,-90.67));
#293=MECHANICAL_DESIGN_GEOMETRIC_PRESENTATION_REPRESENTATION('',(#149,#150,
#151,#152,#153,#154,#155,#156),#294);
#294=(
GEOMETRIC_REPRESENTATION_CONTEXT(3)
GLOBAL_UNCERTAINTY_ASSIGNED_CONTEXT((#295))
GLOBAL_UNIT_ASSIGNED_CONTEXT((#301,#297,#296))
REPRESENTATION_CONTEXT('3962_1_3D','TOP_LEVEL_ASSEMBLY_PART')
);
#295=UNCERTAINTY_MEASURE_WITH_UNIT(LENGTH_MEASURE(2.E-5),#301,
'DISTANCE_ACCURACY_VALUE','Maximum Tolerance applied to model');
#296=(
NAMED_UNIT(*)
SI_UNIT($,.STERADIAN.)
SOLID_ANGLE_UNIT()
);
#297=(
CONVERSION_BASED_UNIT('DEGREE',#299)
NAMED_UNIT(#298)
PLANE_ANGLE_UNIT()
);
#298=DIMENSIONAL_EXPONENTS(0.,0.,0.,0.,0.,0.,0.);
#299=PLANE_ANGLE_MEASURE_WITH_UNIT(PLANE_ANGLE_MEASURE(0.0174532925),#300);
#300=(
NAMED_UNIT(*)
PLANE_ANGLE_UNIT()
SI_UNIT($,.RADIAN.)
);
#301=(
LENGTH_UNIT()
NAMED_UNIT(*)
SI_UNIT(.MILLI.,.METRE.)
);
ENDSEC;
END-ISO-10303-21;
