ISO-10303-21;
HEADER;
/* Generated by software containing ST-Developer
 * from STEP Tools, Inc. (www.steptools.com) 
 */
/* OPTION: using custom schema-name function */

FILE_DESCRIPTION(
/* description */ (''),
/* implementation_level */ '2;1');

FILE_NAME(
/* name */ '3915_1_3D.STP',
/* time_stamp */ '2024-07-24T07:29:27+02:00',
/* author */ (''),
/* organization */ ('SMS'),
/* preprocessor_version */ 'ST-DEVELOPER v16.7',
/* originating_system */ 'SIEMENS PLM Software NX 12.0',
/* authorisation */ '');

FILE_SCHEMA (('AUTOMOTIVE_DESIGN { 1 0 10303 214 3 1 1 1 }'));
ENDSEC;

DATA;
#10=CONSTRUCTIVE_GEOMETRY_REPRESENTATION_RELATIONSHIP(
'supplemental geometry','',#26,#11);
#11=CONSTRUCTIVE_GEOMETRY_REPRESENTATION('supplemental geometry',(#195,
#196,#197),#331);
#12=GEOMETRICALLY_BOUNDED_WIREFRAME_SHAPE_REPRESENTATION(
'3915_1_3D-None',(#27),#331);
#13=SHAPE_REPRESENTATION_RELATIONSHIP('None',
'relationship between 3915_1_3D-None and 3915_1_3D-None',#26,#15);
#14=SHAPE_REPRESENTATION_RELATIONSHIP('None',
'relationship between 3915_1_3D-None and 3915_1_3D-None',#26,#12);
#15=ADVANCED_BREP_SHAPE_REPRESENTATION('3915_1_3D-None',(#41,#42),#331);
#16=SHAPE_DEFINITION_REPRESENTATION(#17,#26);
#17=PRODUCT_DEFINITION_SHAPE('','',#18);
#18=PRODUCT_DEFINITION(' ','',#20,#19);
#19=PRODUCT_DEFINITION_CONTEXT('part definition',#25,'design');
#20=PRODUCT_DEFINITION_FORMATION_WITH_SPECIFIED_SOURCE(' ',' ',#22,
 .NOT_KNOWN.);
#21=PRODUCT_RELATED_PRODUCT_CATEGORY('part','',(#22));
#22=PRODUCT('3915_1_3D','3915_1_3D',' ',(#23));
#23=PRODUCT_CONTEXT(' ',#25,'mechanical');
#24=APPLICATION_PROTOCOL_DEFINITION('international standard',
'automotive_design',2010,#25);
#25=APPLICATION_CONTEXT(
'core data for automotive mechanical design processes');
#26=SHAPE_REPRESENTATION('3915_1_3D-None',(#194),#331);
#27=GEOMETRIC_CURVE_SET('None',(#273,#274,#169));
#28=VERTEX_LOOP('',#139);
#29=SURFACE_STYLE_USAGE(.BOTH.,#31);
#30=SURFACE_STYLE_USAGE(.BOTH.,#32);
#31=SURFACE_SIDE_STYLE('',(#33));
#32=SURFACE_SIDE_STYLE('',(#34));
#33=SURFACE_STYLE_FILL_AREA(#35);
#34=SURFACE_STYLE_FILL_AREA(#36);
#35=FILL_AREA_STYLE('',(#37));
#36=FILL_AREA_STYLE('',(#38));
#37=FILL_AREA_STYLE_COLOUR('',#39);
#38=FILL_AREA_STYLE_COLOUR('',#40);
#39=COLOUR_RGB('TLS_NOCUT',0.499992370489052,0.499992370489052,0.499992370489052);
#40=COLOUR_RGB('TLS_CUT',0.8,0.8,0.8);
#41=MANIFOLD_SOLID_BREP('NOCUT',#43);
#42=MANIFOLD_SOLID_BREP('CUT',#44);
#43=CLOSED_SHELL('',(#53,#54,#55,#56,#57,#58,#59));
#44=CLOSED_SHELL('',(#60,#61,#62,#63,#64));
#45=PLANE('',#206);
#46=PLANE('',#210);
#47=PLANE('',#212);
#48=FACE_OUTER_BOUND('',#96,.T.);
#49=FACE_OUTER_BOUND('',#101,.T.);
#50=FACE_OUTER_BOUND('',#102,.T.);
#51=CYLINDRICAL_SURFACE('',#202,6.95499999999811);
#52=CYLINDRICAL_SURFACE('',#209,7.);
#53=ADVANCED_FACE('',(#72,#73),#65,.T.);
#54=ADVANCED_FACE('',(#74,#75),#51,.T.);
#55=ADVANCED_FACE('',(#76,#77),#66,.T.);
#56=ADVANCED_FACE('',(#48),#45,.T.);
#57=ADVANCED_FACE('',(#78,#79),#67,.T.);
#58=ADVANCED_FACE('SHANK',(#80,#81),#52,.T.);
#59=ADVANCED_FACE('',(#49),#46,.T.);
#60=ADVANCED_FACE('',(#50),#47,.F.);
#61=ADVANCED_FACE('',(#82,#83),#68,.T.);
#62=ADVANCED_FACE('',(#84,#85),#69,.T.);
#63=ADVANCED_FACE('',(#86,#87),#70,.T.);
#64=ADVANCED_FACE('',(#88,#89),#71,.T.);
#65=CONICAL_SURFACE('',#200,5.15,45.);
#66=CONICAL_SURFACE('',#204,6.95499999999751,1.71835800175032);
#67=CONICAL_SURFACE('',#208,7.,45.);
#68=CONICAL_SURFACE('',#215,5.110687,2.99999999999998);
#69=CONICAL_SURFACE('',#216,5.15,45.);
#70=CONICAL_SURFACE('',#218,1.68753899743024E-14,73.4621588072642);
#71=CONICAL_SURFACE('',#219,5.16250000000001,0.0358098575329493);
#72=FACE_BOUND('',#90,.T.);
#73=FACE_BOUND('',#91,.T.);
#74=FACE_BOUND('',#92,.T.);
#75=FACE_BOUND('',#93,.T.);
#76=FACE_BOUND('',#94,.T.);
#77=FACE_BOUND('',#95,.T.);
#78=FACE_BOUND('',#97,.T.);
#79=FACE_BOUND('',#98,.T.);
#80=FACE_BOUND('',#99,.T.);
#81=FACE_BOUND('',#100,.T.);
#82=FACE_BOUND('',#103,.T.);
#83=FACE_BOUND('',#104,.T.);
#84=FACE_BOUND('',#105,.T.);
#85=FACE_BOUND('',#106,.T.);
#86=FACE_BOUND('',#28,.T.);
#87=FACE_BOUND('',#107,.T.);
#88=FACE_BOUND('',#108,.T.);
#89=FACE_BOUND('',#109,.T.);
#90=EDGE_LOOP('',(#110));
#91=EDGE_LOOP('',(#111));
#92=EDGE_LOOP('',(#112));
#93=EDGE_LOOP('',(#113));
#94=EDGE_LOOP('',(#114));
#95=EDGE_LOOP('',(#115));
#96=EDGE_LOOP('',(#116));
#97=EDGE_LOOP('',(#117));
#98=EDGE_LOOP('',(#118));
#99=EDGE_LOOP('',(#119));
#100=EDGE_LOOP('',(#120));
#101=EDGE_LOOP('',(#121));
#102=EDGE_LOOP('',(#122));
#103=EDGE_LOOP('',(#123));
#104=EDGE_LOOP('',(#124));
#105=EDGE_LOOP('',(#125));
#106=EDGE_LOOP('',(#126));
#107=EDGE_LOOP('',(#127));
#108=EDGE_LOOP('',(#128));
#109=EDGE_LOOP('',(#129));
#110=ORIENTED_EDGE('',*,*,#141,.T.);
#111=ORIENTED_EDGE('',*,*,#142,.T.);
#112=ORIENTED_EDGE('',*,*,#143,.F.);
#113=ORIENTED_EDGE('',*,*,#141,.F.);
#114=ORIENTED_EDGE('',*,*,#144,.T.);
#115=ORIENTED_EDGE('',*,*,#143,.T.);
#116=ORIENTED_EDGE('',*,*,#145,.F.);
#117=ORIENTED_EDGE('',*,*,#145,.T.);
#118=ORIENTED_EDGE('',*,*,#146,.F.);
#119=ORIENTED_EDGE('',*,*,#146,.T.);
#120=ORIENTED_EDGE('',*,*,#144,.F.);
#121=ORIENTED_EDGE('',*,*,#142,.F.);
#122=ORIENTED_EDGE('',*,*,#147,.T.);
#123=ORIENTED_EDGE('',*,*,#148,.T.);
#124=ORIENTED_EDGE('',*,*,#149,.T.);
#125=ORIENTED_EDGE('',*,*,#147,.F.);
#126=ORIENTED_EDGE('',*,*,#148,.F.);
#127=ORIENTED_EDGE('',*,*,#150,.T.);
#128=ORIENTED_EDGE('',*,*,#150,.F.);
#129=ORIENTED_EDGE('',*,*,#149,.F.);
#130=VERTEX_POINT('',#298);
#131=VERTEX_POINT('',#300);
#132=VERTEX_POINT('',#303);
#133=VERTEX_POINT('',#306);
#134=VERTEX_POINT('',#309);
#135=VERTEX_POINT('',#312);
#136=VERTEX_POINT('',#317);
#137=VERTEX_POINT('',#320);
#138=VERTEX_POINT('',#322);
#139=VERTEX_POINT('',#325);
#140=VERTEX_POINT('',#327);
#141=EDGE_CURVE('',#130,#130,#151,.T.);
#142=EDGE_CURVE('',#131,#131,#152,.T.);
#143=EDGE_CURVE('',#132,#132,#153,.T.);
#144=EDGE_CURVE('',#133,#133,#154,.T.);
#145=EDGE_CURVE('',#134,#134,#155,.T.);
#146=EDGE_CURVE('',#135,#135,#156,.T.);
#147=EDGE_CURVE('',#136,#136,#157,.T.);
#148=EDGE_CURVE('',#137,#137,#158,.T.);
#149=EDGE_CURVE('',#138,#138,#159,.T.);
#150=EDGE_CURVE('',#140,#140,#160,.T.);
#151=CIRCLE('',#198,6.95499999999811);
#152=CIRCLE('',#199,6.95079999999998);
#153=CIRCLE('',#201,6.95499999999811);
#154=CIRCLE('',#203,7.);
#155=CIRCLE('',#205,5.055);
#156=CIRCLE('',#207,7.);
#157=CIRCLE('',#211,6.95079999999998);
#158=CIRCLE('',#213,5.110687);
#159=CIRCLE('',#214,5.13095376621017);
#160=CIRCLE('',#217,5.15);
#161=CURVE_STYLE('',#165,POSITIVE_LENGTH_MEASURE(0.18),#191);
#162=CURVE_STYLE('',#166,POSITIVE_LENGTH_MEASURE(0.13),#193);
#163=CURVE_STYLE('',#167,POSITIVE_LENGTH_MEASURE(0.13),#193);
#164=CURVE_STYLE('',#168,POSITIVE_LENGTH_MEASURE(0.13),#193);
#165=DRAUGHTING_PRE_DEFINED_CURVE_FONT('continuous');
#166=DRAUGHTING_PRE_DEFINED_CURVE_FONT('continuous');
#167=DRAUGHTING_PRE_DEFINED_CURVE_FONT('continuous');
#168=DRAUGHTING_PRE_DEFINED_CURVE_FONT('continuous');
#169=B_SPLINE_CURVE_WITH_KNOTS('CUTTING PART LINE',3,(#275,#276,#277,#278,
#279,#280,#281,#282,#283,#284,#285,#286,#287,#288,#289,#290,#291,#292,#293),
 .UNSPECIFIED.,.T.,.F.,(4,3,3,3,3,3,4),(0.,0.427786365401975,0.514653367114977,
0.547175538240427,0.552015081020936,0.932860922395113,1.),.UNSPECIFIED.);
#170=PRESENTATION_LAYER_ASSIGNMENT('1','Layer 1',(#273,#274,#169,#195,#196,
#197,#41,#42));
#171=STYLED_ITEM('',(#179),#273);
#172=STYLED_ITEM('',(#180),#274);
#173=STYLED_ITEM('',(#181),#169);
#174=STYLED_ITEM('',(#182),#195);
#175=STYLED_ITEM('',(#183),#196);
#176=STYLED_ITEM('',(#184),#197);
#177=STYLED_ITEM('',(#185),#41);
#178=STYLED_ITEM('',(#186),#42);
#179=PRESENTATION_STYLE_ASSIGNMENT((#187));
#180=PRESENTATION_STYLE_ASSIGNMENT((#188));
#181=PRESENTATION_STYLE_ASSIGNMENT((#161));
#182=PRESENTATION_STYLE_ASSIGNMENT((#162));
#183=PRESENTATION_STYLE_ASSIGNMENT((#163));
#184=PRESENTATION_STYLE_ASSIGNMENT((#164));
#185=PRESENTATION_STYLE_ASSIGNMENT((#29));
#186=PRESENTATION_STYLE_ASSIGNMENT((#30));
#187=POINT_STYLE('',#189,POSITIVE_LENGTH_MEASURE(3.),#191);
#188=POINT_STYLE('',#190,POSITIVE_LENGTH_MEASURE(3.),#192);
#189=PRE_DEFINED_POINT_MARKER_SYMBOL('plus');
#190=PRE_DEFINED_POINT_MARKER_SYMBOL('plus');
#191=DRAUGHTING_PRE_DEFINED_COLOUR('blue');
#192=DRAUGHTING_PRE_DEFINED_COLOUR('white');
#193=DRAUGHTING_PRE_DEFINED_COLOUR('green');
#194=AXIS2_PLACEMENT_3D('',#272,#220,#221);
#195=AXIS2_PLACEMENT_3D('PCS',#294,#222,#223);
#196=AXIS2_PLACEMENT_3D('MCS',#295,#224,#225);
#197=AXIS2_PLACEMENT_3D('CIP',#296,#226,#227);
#198=AXIS2_PLACEMENT_3D('',#297,#228,#229);
#199=AXIS2_PLACEMENT_3D('',#299,#230,#231);
#200=AXIS2_PLACEMENT_3D('',#301,#232,#233);
#201=AXIS2_PLACEMENT_3D('',#302,#234,#235);
#202=AXIS2_PLACEMENT_3D('',#304,#236,#237);
#203=AXIS2_PLACEMENT_3D('',#305,#238,#239);
#204=AXIS2_PLACEMENT_3D('',#307,#240,#241);
#205=AXIS2_PLACEMENT_3D('',#308,#242,#243);
#206=AXIS2_PLACEMENT_3D('',#310,#244,#245);
#207=AXIS2_PLACEMENT_3D('',#311,#246,#247);
#208=AXIS2_PLACEMENT_3D('',#313,#248,#249);
#209=AXIS2_PLACEMENT_3D('',#314,#250,#251);
#210=AXIS2_PLACEMENT_3D('',#315,#252,#253);
#211=AXIS2_PLACEMENT_3D('',#316,#254,#255);
#212=AXIS2_PLACEMENT_3D('',#318,#256,#257);
#213=AXIS2_PLACEMENT_3D('',#319,#258,#259);
#214=AXIS2_PLACEMENT_3D('',#321,#260,#261);
#215=AXIS2_PLACEMENT_3D('',#323,#262,#263);
#216=AXIS2_PLACEMENT_3D('',#324,#264,#265);
#217=AXIS2_PLACEMENT_3D('',#326,#266,#267);
#218=AXIS2_PLACEMENT_3D('',#328,#268,#269);
#219=AXIS2_PLACEMENT_3D('',#329,#270,#271);
#220=DIRECTION('',(0.,0.,1.));
#221=DIRECTION('',(1.,0.,0.));
#222=DIRECTION('',(0.,0.,1.));
#223=DIRECTION('',(1.,0.,0.));
#224=DIRECTION('',(0.,0.,1.));
#225=DIRECTION('',(1.,0.,0.));
#226=DIRECTION('',(0.,0.,1.));
#227=DIRECTION('',(1.,0.,0.));
#228=DIRECTION('',(0.,0.,-1.));
#229=DIRECTION('',(-1.,0.,0.));
#230=DIRECTION('',(0.,0.,1.));
#231=DIRECTION('',(1.,0.,0.));
#232=DIRECTION('',(0.,0.,1.));
#233=DIRECTION('',(-1.,0.,-5.52267335534575E-17));
#234=DIRECTION('',(0.,0.,1.));
#235=DIRECTION('',(1.,0.,0.));
#236=DIRECTION('',(0.,0.,1.));
#237=DIRECTION('',(-1.,0.,0.));
#238=DIRECTION('',(0.,0.,-1.));
#239=DIRECTION('',(1.,0.,0.));
#240=DIRECTION('',(0.,0.,1.));
#241=DIRECTION('',(-1.,0.,3.75532074338874E-16));
#242=DIRECTION('',(0.,0.,-1.));
#243=DIRECTION('',(1.,0.,0.));
#244=DIRECTION('',(0.,0.,1.));
#245=DIRECTION('',(-1.,0.,0.));
#246=DIRECTION('',(0.,0.,-1.));
#247=DIRECTION('',(1.,0.,0.));
#248=DIRECTION('',(0.,0.,-1.));
#249=DIRECTION('',(1.,0.,-8.61332411110628E-17));
#250=DIRECTION('',(0.,0.,-1.));
#251=DIRECTION('',(1.,0.,0.));
#252=DIRECTION('',(0.,0.,-1.));
#253=DIRECTION('',(1.,0.,0.));
#254=DIRECTION('',(0.,0.,1.));
#255=DIRECTION('',(1.,0.,0.));
#256=DIRECTION('',(0.,0.,-1.));
#257=DIRECTION('',(1.,0.,0.));
#258=DIRECTION('',(0.,0.,-1.));
#259=DIRECTION('',(-1.,0.,0.));
#260=DIRECTION('',(0.,0.,1.));
#261=DIRECTION('',(1.,0.,0.));
#262=DIRECTION('',(0.,0.,-1.));
#263=DIRECTION('',(1.,0.,-1.6889274163999E-15));
#264=DIRECTION('',(0.,0.,1.));
#265=DIRECTION('',(-1.,0.,-5.52267335534575E-17));
#266=DIRECTION('',(0.,0.,-1.));
#267=DIRECTION('',(-1.,0.,0.));
#268=DIRECTION('',(0.,0.,1.));
#269=DIRECTION('',(-1.,0.,4.12075982829317E-18));
#270=DIRECTION('',(0.,0.,-1.));
#271=DIRECTION('',(1.,0.,0.));
#272=CARTESIAN_POINT('',(0.,0.,0.));
#273=CARTESIAN_POINT('CRP',(5.15,0.,-105.4708));
#274=CARTESIAN_POINT('',(0.,0.,-107.));
#275=CARTESIAN_POINT('',(0.,0.,-107.));
#276=CARTESIAN_POINT('',(0.,0.,-95.59));
#277=CARTESIAN_POINT('',(0.,0.,-84.18));
#278=CARTESIAN_POINT('',(0.,0.,-72.77));
#279=CARTESIAN_POINT('',(2.31693333333333,0.,-72.77));
#280=CARTESIAN_POINT('',(4.63386666666665,0.,-72.77));
#281=CARTESIAN_POINT('',(6.95079999999998,0.,-72.77));
#282=CARTESIAN_POINT('',(6.33742899999999,0.,-73.383371));
#283=CARTESIAN_POINT('',(5.72405799999999,0.,-73.996742));
#284=CARTESIAN_POINT('',(5.110687,0.,-74.610113));
#285=CARTESIAN_POINT('',(5.11744258873672,0.,-74.7390173120915));
#286=CARTESIAN_POINT('',(5.12419817747344,0.,-74.8679216241829));
#287=CARTESIAN_POINT('',(5.13095376621017,0.,-74.9968259362744));
#288=CARTESIAN_POINT('',(5.13730251080678,0.,-85.1548172908494));
#289=CARTESIAN_POINT('',(5.14365125540339,0.,-95.3128086454242));
#290=CARTESIAN_POINT('',(5.15,0.,-105.470799999999));
#291=CARTESIAN_POINT('',(3.43333333333538,0.,-105.980533333333));
#292=CARTESIAN_POINT('',(1.71666666666769,0.,-106.490266666666));
#293=CARTESIAN_POINT('',(0.,0.,-107.));
#294=CARTESIAN_POINT('',(0.,0.,0.));
#295=CARTESIAN_POINT('',(0.,0.,-45.));
#296=CARTESIAN_POINT('',(0.,0.,-107.));
#297=CARTESIAN_POINT('',(0.,0.,-72.7658000000019));
#298=CARTESIAN_POINT('',(-6.95499999999811,0.,-72.7658000000019));
#299=CARTESIAN_POINT('',(0.,0.,-72.77));
#300=CARTESIAN_POINT('',(6.95079999999998,0.,-72.77));
#301=CARTESIAN_POINT('',(0.,0.,-74.5708));
#302=CARTESIAN_POINT('',(0.,0.,-46.5));
#303=CARTESIAN_POINT('',(6.95499999999811,0.,-46.5));
#304=CARTESIAN_POINT('',(0.,0.,18.5639167741778));
#305=CARTESIAN_POINT('',(0.,0.,-45.));
#306=CARTESIAN_POINT('',(7.,0.,-45.));
#307=CARTESIAN_POINT('',(0.,0.,-46.5));
#308=CARTESIAN_POINT('',(0.,0.,0.));
#309=CARTESIAN_POINT('',(5.055,0.,0.));
#310=CARTESIAN_POINT('',(5.055,0.,2.22044604925031E-16));
#311=CARTESIAN_POINT('',(0.,0.,-1.945));
#312=CARTESIAN_POINT('',(7.,0.,-1.945));
#313=CARTESIAN_POINT('',(0.,0.,-1.945));
#314=CARTESIAN_POINT('',(0.,0.,18.5639167741778));
#315=CARTESIAN_POINT('',(0.,0.,-72.77));
#316=CARTESIAN_POINT('',(0.,0.,-72.77));
#317=CARTESIAN_POINT('',(6.95079999999998,0.,-72.77));
#318=CARTESIAN_POINT('',(0.,0.,-72.77));
#319=CARTESIAN_POINT('',(0.,0.,-74.610113));
#320=CARTESIAN_POINT('',(-5.110687,0.,-74.610113));
#321=CARTESIAN_POINT('',(0.,0.,-74.9968259362744));
#322=CARTESIAN_POINT('',(5.13095376621017,0.,-74.9968259362744));
#323=CARTESIAN_POINT('',(0.,0.,-74.610113));
#324=CARTESIAN_POINT('',(0.,0.,-74.5708));
#325=CARTESIAN_POINT('',(-1.68753899743024E-14,0.,-107.));
#326=CARTESIAN_POINT('',(0.,0.,-105.470799999999));
#327=CARTESIAN_POINT('',(-5.15,0.,-105.470799999999));
#328=CARTESIAN_POINT('',(0.,0.,-107.));
#329=CARTESIAN_POINT('',(0.,0.,-125.4708));
#330=MECHANICAL_DESIGN_GEOMETRIC_PRESENTATION_REPRESENTATION('',(#171,#172,
#173,#174,#175,#176,#177,#178),#331);
#331=(
GEOMETRIC_REPRESENTATION_CONTEXT(3)
GLOBAL_UNCERTAINTY_ASSIGNED_CONTEXT((#332))
GLOBAL_UNIT_ASSIGNED_CONTEXT((#338,#334,#333))
REPRESENTATION_CONTEXT('3915_1_3D','TOP_LEVEL_ASSEMBLY_PART')
);
#332=UNCERTAINTY_MEASURE_WITH_UNIT(LENGTH_MEASURE(2.E-5),#338,
'DISTANCE_ACCURACY_VALUE','Maximum Tolerance applied to model');
#333=(
NAMED_UNIT(*)
SI_UNIT($,.STERADIAN.)
SOLID_ANGLE_UNIT()
);
#334=(
CONVERSION_BASED_UNIT('DEGREE',#336)
NAMED_UNIT(#335)
PLANE_ANGLE_UNIT()
);
#335=DIMENSIONAL_EXPONENTS(0.,0.,0.,0.,0.,0.,0.);
#336=PLANE_ANGLE_MEASURE_WITH_UNIT(PLANE_ANGLE_MEASURE(0.0174532925),#337);
#337=(
NAMED_UNIT(*)
PLANE_ANGLE_UNIT()
SI_UNIT($,.RADIAN.)
);
#338=(
LENGTH_UNIT()
NAMED_UNIT(*)
SI_UNIT(.MILLI.,.METRE.)
);
ENDSEC;
END-ISO-10303-21;
