ISO-10303-21;
HEADER;
/* Generated by software containing ST-Developer
 * from STEP Tools, Inc. (www.steptools.com) 
 */
/* OPTION: using custom schema-name function */

FILE_DESCRIPTION(
/* description */ (''),
/* implementation_level */ '2;1');

FILE_NAME(
/* name */ '3925_1_3D.STP',
/* time_stamp */ '2024-07-24T07:30:20+02:00',
/* author */ (''),
/* organization */ ('SMS'),
/* preprocessor_version */ 'ST-DEVELOPER v16.7',
/* originating_system */ 'SIEMENS PLM Software NX 12.0',
/* authorisation */ '');

FILE_SCHEMA (('AUTOMOTIVE_DESIGN { 1 0 10303 214 3 1 1 1 }'));
ENDSEC;

DATA;
#10=CONSTRUCTIVE_GEOMETRY_REPRESENTATION_RELATIONSHIP(
'supplemental geometry','',#26,#11);
#11=CONSTRUCTIVE_GEOMETRY_REPRESENTATION('supplemental geometry',(#195,
#196,#197),#331);
#12=GEOMETRICALLY_BOUNDED_WIREFRAME_SHAPE_REPRESENTATION(
'3925_1_3D-None',(#27),#331);
#13=SHAPE_REPRESENTATION_RELATIONSHIP('None',
'relationship between 3925_1_3D-None and 3925_1_3D-None',#26,#15);
#14=SHAPE_REPRESENTATION_RELATIONSHIP('None',
'relationship between 3925_1_3D-None and 3925_1_3D-None',#26,#12);
#15=ADVANCED_BREP_SHAPE_REPRESENTATION('3925_1_3D-None',(#41,#42),#331);
#16=SHAPE_DEFINITION_REPRESENTATION(#17,#26);
#17=PRODUCT_DEFINITION_SHAPE('','',#18);
#18=PRODUCT_DEFINITION(' ','',#20,#19);
#19=PRODUCT_DEFINITION_CONTEXT('part definition',#25,'design');
#20=PRODUCT_DEFINITION_FORMATION_WITH_SPECIFIED_SOURCE(' ',' ',#22,
 .NOT_KNOWN.);
#21=PRODUCT_RELATED_PRODUCT_CATEGORY('part','',(#22));
#22=PRODUCT('3925_1_3D','3925_1_3D',' ',(#23));
#23=PRODUCT_CONTEXT(' ',#25,'mechanical');
#24=APPLICATION_PROTOCOL_DEFINITION('international standard',
'automotive_design',2010,#25);
#25=APPLICATION_CONTEXT(
'core data for automotive mechanical design processes');
#26=SHAPE_REPRESENTATION('3925_1_3D-None',(#194),#331);
#27=GEOMETRIC_CURVE_SET('None',(#273,#274,#169));
#28=VERTEX_LOOP('',#139);
#29=SURFACE_STYLE_USAGE(.BOTH.,#31);
#30=SURFACE_STYLE_USAGE(.BOTH.,#32);
#31=SURFACE_SIDE_STYLE('',(#33));
#32=SURFACE_SIDE_STYLE('',(#34));
#33=SURFACE_STYLE_FILL_AREA(#35);
#34=SURFACE_STYLE_FILL_AREA(#36);
#35=FILL_AREA_STYLE('',(#37));
#36=FILL_AREA_STYLE('',(#38));
#37=FILL_AREA_STYLE_COLOUR('',#39);
#38=FILL_AREA_STYLE_COLOUR('',#40);
#39=COLOUR_RGB('TLS_NOCUT',0.499992370489052,0.499992370489052,0.499992370489052);
#40=COLOUR_RGB('TLS_CUT',0.8,0.8,0.8);
#41=MANIFOLD_SOLID_BREP('NOCUT',#43);
#42=MANIFOLD_SOLID_BREP('CUT',#44);
#43=CLOSED_SHELL('',(#58,#59,#60,#61,#62,#63,#64));
#44=CLOSED_SHELL('',(#65,#66,#67,#68,#69));
#45=CONICAL_SURFACE('',#208,8.,45.);
#46=CONICAL_SURFACE('',#215,5.658625,2.99999999999998);
#47=CONICAL_SURFACE('',#216,5.7,45.0000000000036);
#48=CONICAL_SURFACE('',#218,7.63833440942108E-14,73.4391845363128);
#49=CONICAL_SURFACE('',#219,5.71250000000001,0.0358098575329497);
#50=PLANE('',#206);
#51=PLANE('',#210);
#52=PLANE('',#212);
#53=FACE_OUTER_BOUND('',#96,.T.);
#54=FACE_OUTER_BOUND('',#101,.T.);
#55=FACE_OUTER_BOUND('',#102,.T.);
#56=TOROIDAL_SURFACE('',#203,7.2,0.799999999999998);
#57=TOROIDAL_SURFACE('',#204,8.4949999999864,0.800000000000003);
#58=ADVANCED_FACE('',(#72,#73),#70,.T.);
#59=ADVANCED_FACE('',(#74,#75),#56,.T.);
#60=ADVANCED_FACE('',(#76,#77),#57,.F.);
#61=ADVANCED_FACE('',(#53),#50,.T.);
#62=ADVANCED_FACE('',(#78,#79),#45,.T.);
#63=ADVANCED_FACE('SHANK',(#80,#81),#71,.T.);
#64=ADVANCED_FACE('',(#54),#51,.T.);
#65=ADVANCED_FACE('',(#55),#52,.F.);
#66=ADVANCED_FACE('',(#82,#83),#46,.T.);
#67=ADVANCED_FACE('',(#84,#85),#47,.T.);
#68=ADVANCED_FACE('',(#86,#87),#48,.T.);
#69=ADVANCED_FACE('',(#88,#89),#49,.T.);
#70=CYLINDRICAL_SURFACE('',#200,7.69499999998959);
#71=CYLINDRICAL_SURFACE('',#209,8.);
#72=FACE_BOUND('',#90,.T.);
#73=FACE_BOUND('',#91,.T.);
#74=FACE_BOUND('',#92,.T.);
#75=FACE_BOUND('',#93,.T.);
#76=FACE_BOUND('',#94,.T.);
#77=FACE_BOUND('',#95,.T.);
#78=FACE_BOUND('',#97,.T.);
#79=FACE_BOUND('',#98,.T.);
#80=FACE_BOUND('',#99,.T.);
#81=FACE_BOUND('',#100,.T.);
#82=FACE_BOUND('',#103,.T.);
#83=FACE_BOUND('',#104,.T.);
#84=FACE_BOUND('',#105,.T.);
#85=FACE_BOUND('',#106,.T.);
#86=FACE_BOUND('',#28,.T.);
#87=FACE_BOUND('',#107,.T.);
#88=FACE_BOUND('',#108,.T.);
#89=FACE_BOUND('',#109,.T.);
#90=EDGE_LOOP('',(#110));
#91=EDGE_LOOP('',(#111));
#92=EDGE_LOOP('',(#112));
#93=EDGE_LOOP('',(#113));
#94=EDGE_LOOP('',(#114));
#95=EDGE_LOOP('',(#115));
#96=EDGE_LOOP('',(#116));
#97=EDGE_LOOP('',(#117));
#98=EDGE_LOOP('',(#118));
#99=EDGE_LOOP('',(#119));
#100=EDGE_LOOP('',(#120));
#101=EDGE_LOOP('',(#121));
#102=EDGE_LOOP('',(#122));
#103=EDGE_LOOP('',(#123));
#104=EDGE_LOOP('',(#124));
#105=EDGE_LOOP('',(#125));
#106=EDGE_LOOP('',(#126));
#107=EDGE_LOOP('',(#127));
#108=EDGE_LOOP('',(#128));
#109=EDGE_LOOP('',(#129));
#110=ORIENTED_EDGE('',*,*,#141,.T.);
#111=ORIENTED_EDGE('',*,*,#142,.F.);
#112=ORIENTED_EDGE('',*,*,#143,.T.);
#113=ORIENTED_EDGE('',*,*,#144,.F.);
#114=ORIENTED_EDGE('',*,*,#144,.T.);
#115=ORIENTED_EDGE('',*,*,#141,.F.);
#116=ORIENTED_EDGE('',*,*,#145,.F.);
#117=ORIENTED_EDGE('',*,*,#145,.T.);
#118=ORIENTED_EDGE('',*,*,#146,.F.);
#119=ORIENTED_EDGE('',*,*,#146,.T.);
#120=ORIENTED_EDGE('',*,*,#143,.F.);
#121=ORIENTED_EDGE('',*,*,#142,.T.);
#122=ORIENTED_EDGE('',*,*,#147,.T.);
#123=ORIENTED_EDGE('',*,*,#148,.T.);
#124=ORIENTED_EDGE('',*,*,#149,.T.);
#125=ORIENTED_EDGE('',*,*,#148,.F.);
#126=ORIENTED_EDGE('',*,*,#147,.F.);
#127=ORIENTED_EDGE('',*,*,#150,.T.);
#128=ORIENTED_EDGE('',*,*,#150,.F.);
#129=ORIENTED_EDGE('',*,*,#149,.F.);
#130=VERTEX_POINT('',#298);
#131=VERTEX_POINT('',#300);
#132=VERTEX_POINT('',#303);
#133=VERTEX_POINT('',#305);
#134=VERTEX_POINT('',#309);
#135=VERTEX_POINT('',#312);
#136=VERTEX_POINT('',#317);
#137=VERTEX_POINT('',#320);
#138=VERTEX_POINT('',#322);
#139=VERTEX_POINT('',#325);
#140=VERTEX_POINT('',#327);
#141=EDGE_CURVE('',#130,#130,#151,.T.);
#142=EDGE_CURVE('',#131,#131,#152,.T.);
#143=EDGE_CURVE('',#132,#132,#153,.T.);
#144=EDGE_CURVE('',#133,#133,#154,.T.);
#145=EDGE_CURVE('',#134,#134,#155,.T.);
#146=EDGE_CURVE('',#135,#135,#156,.T.);
#147=EDGE_CURVE('',#136,#136,#157,.T.);
#148=EDGE_CURVE('',#137,#137,#158,.T.);
#149=EDGE_CURVE('',#138,#138,#159,.T.);
#150=EDGE_CURVE('',#140,#140,#160,.T.);
#151=CIRCLE('',#198,7.69499999998639);
#152=CIRCLE('',#199,7.69499999998959);
#153=CIRCLE('',#201,8.);
#154=CIRCLE('',#202,7.8474999999932);
#155=CIRCLE('',#205,5.55);
#156=CIRCLE('',#207,8.);
#157=CIRCLE('',#211,7.69500000000026);
#158=CIRCLE('',#213,5.658625);
#159=CIRCLE('',#214,5.6788925644801);
#160=CIRCLE('',#217,5.7);
#161=CURVE_STYLE('',#165,POSITIVE_LENGTH_MEASURE(0.18),#191);
#162=CURVE_STYLE('',#166,POSITIVE_LENGTH_MEASURE(0.13),#193);
#163=CURVE_STYLE('',#167,POSITIVE_LENGTH_MEASURE(0.13),#193);
#164=CURVE_STYLE('',#168,POSITIVE_LENGTH_MEASURE(0.13),#193);
#165=DRAUGHTING_PRE_DEFINED_CURVE_FONT('continuous');
#166=DRAUGHTING_PRE_DEFINED_CURVE_FONT('continuous');
#167=DRAUGHTING_PRE_DEFINED_CURVE_FONT('continuous');
#168=DRAUGHTING_PRE_DEFINED_CURVE_FONT('continuous');
#169=B_SPLINE_CURVE_WITH_KNOTS('CUTTING PART LINE',3,(#275,#276,#277,#278,
#279,#280,#281,#282,#283,#284,#285,#286,#287,#288,#289,#290,#291,#292,#293),
 .UNSPECIFIED.,.T.,.F.,(4,3,3,3,3,3,4),(0.,0.427793777233937,0.514673511090239,
0.547188425280174,0.551560738413324,0.932859501459001,1.),.UNSPECIFIED.);
#170=PRESENTATION_LAYER_ASSIGNMENT('1','Layer 1',(#273,#274,#169,#195,#196,
#197,#41,#42));
#171=STYLED_ITEM('',(#179),#273);
#172=STYLED_ITEM('',(#180),#274);
#173=STYLED_ITEM('',(#181),#169);
#174=STYLED_ITEM('',(#182),#195);
#175=STYLED_ITEM('',(#183),#196);
#176=STYLED_ITEM('',(#184),#197);
#177=STYLED_ITEM('',(#185),#41);
#178=STYLED_ITEM('',(#186),#42);
#179=PRESENTATION_STYLE_ASSIGNMENT((#187));
#180=PRESENTATION_STYLE_ASSIGNMENT((#188));
#181=PRESENTATION_STYLE_ASSIGNMENT((#161));
#182=PRESENTATION_STYLE_ASSIGNMENT((#162));
#183=PRESENTATION_STYLE_ASSIGNMENT((#163));
#184=PRESENTATION_STYLE_ASSIGNMENT((#164));
#185=PRESENTATION_STYLE_ASSIGNMENT((#29));
#186=PRESENTATION_STYLE_ASSIGNMENT((#30));
#187=POINT_STYLE('',#189,POSITIVE_LENGTH_MEASURE(3.),#191);
#188=POINT_STYLE('',#190,POSITIVE_LENGTH_MEASURE(3.),#192);
#189=PRE_DEFINED_POINT_MARKER_SYMBOL('plus');
#190=PRE_DEFINED_POINT_MARKER_SYMBOL('plus');
#191=DRAUGHTING_PRE_DEFINED_COLOUR('blue');
#192=DRAUGHTING_PRE_DEFINED_COLOUR('white');
#193=DRAUGHTING_PRE_DEFINED_COLOUR('green');
#194=AXIS2_PLACEMENT_3D('',#272,#220,#221);
#195=AXIS2_PLACEMENT_3D('PCS',#294,#222,#223);
#196=AXIS2_PLACEMENT_3D('MCS',#295,#224,#225);
#197=AXIS2_PLACEMENT_3D('CIP',#296,#226,#227);
#198=AXIS2_PLACEMENT_3D('',#297,#228,#229);
#199=AXIS2_PLACEMENT_3D('',#299,#230,#231);
#200=AXIS2_PLACEMENT_3D('',#301,#232,#233);
#201=AXIS2_PLACEMENT_3D('',#302,#234,#235);
#202=AXIS2_PLACEMENT_3D('',#304,#236,#237);
#203=AXIS2_PLACEMENT_3D('',#306,#238,#239);
#204=AXIS2_PLACEMENT_3D('',#307,#240,#241);
#205=AXIS2_PLACEMENT_3D('',#308,#242,#243);
#206=AXIS2_PLACEMENT_3D('',#310,#244,#245);
#207=AXIS2_PLACEMENT_3D('',#311,#246,#247);
#208=AXIS2_PLACEMENT_3D('',#313,#248,#249);
#209=AXIS2_PLACEMENT_3D('',#314,#250,#251);
#210=AXIS2_PLACEMENT_3D('',#315,#252,#253);
#211=AXIS2_PLACEMENT_3D('',#316,#254,#255);
#212=AXIS2_PLACEMENT_3D('',#318,#256,#257);
#213=AXIS2_PLACEMENT_3D('',#319,#258,#259);
#214=AXIS2_PLACEMENT_3D('',#321,#260,#261);
#215=AXIS2_PLACEMENT_3D('',#323,#262,#263);
#216=AXIS2_PLACEMENT_3D('',#324,#264,#265);
#217=AXIS2_PLACEMENT_3D('',#326,#266,#267);
#218=AXIS2_PLACEMENT_3D('',#328,#268,#269);
#219=AXIS2_PLACEMENT_3D('',#329,#270,#271);
#220=DIRECTION('',(0.,0.,1.));
#221=DIRECTION('',(1.,0.,0.));
#222=DIRECTION('',(0.,0.,1.));
#223=DIRECTION('',(1.,0.,0.));
#224=DIRECTION('',(0.,0.,1.));
#225=DIRECTION('',(1.,0.,0.));
#226=DIRECTION('',(0.,0.,1.));
#227=DIRECTION('',(1.,0.,0.));
#228=DIRECTION('',(0.,0.,-1.));
#229=DIRECTION('',(1.,0.,0.));
#230=DIRECTION('',(0.,0.,-1.));
#231=DIRECTION('',(-1.,0.,0.));
#232=DIRECTION('',(0.,0.,1.));
#233=DIRECTION('',(-1.,0.,0.));
#234=DIRECTION('',(0.,0.,-1.));
#235=DIRECTION('',(1.,0.,0.));
#236=DIRECTION('',(0.,0.,-1.));
#237=DIRECTION('',(1.,0.,0.));
#238=DIRECTION('',(0.,0.,-1.));
#239=DIRECTION('',(1.,0.,0.));
#240=DIRECTION('',(0.,0.,-1.));
#241=DIRECTION('',(1.,0.,0.));
#242=DIRECTION('',(0.,0.,-1.));
#243=DIRECTION('',(1.,0.,0.));
#244=DIRECTION('',(0.,0.,1.));
#245=DIRECTION('',(-1.,0.,0.));
#246=DIRECTION('',(0.,0.,-1.));
#247=DIRECTION('',(1.,0.,0.));
#248=DIRECTION('',(0.,0.,-1.));
#249=DIRECTION('',(1.,0.,-5.85124981976305E-17));
#250=DIRECTION('',(0.,0.,-1.));
#251=DIRECTION('',(1.,0.,0.));
#252=DIRECTION('',(0.,0.,-1.));
#253=DIRECTION('',(1.,0.,0.));
#254=DIRECTION('',(0.,0.,1.));
#255=DIRECTION('',(1.,0.,0.));
#256=DIRECTION('',(0.,0.,-1.));
#257=DIRECTION('',(1.,0.,0.));
#258=DIRECTION('',(0.,0.,-1.));
#259=DIRECTION('',(-1.,0.,0.));
#260=DIRECTION('',(0.,0.,1.));
#261=DIRECTION('',(1.,0.,0.));
#262=DIRECTION('',(0.,0.,-1.));
#263=DIRECTION('',(1.,0.,-1.67299001641597E-15));
#264=DIRECTION('',(0.,0.,1.));
#265=DIRECTION('',(-1.,0.,2.75982655022625E-17));
#266=DIRECTION('',(0.,0.,-1.));
#267=DIRECTION('',(-1.,0.,0.));
#268=DIRECTION('',(0.,0.,1.));
#269=DIRECTION('',(-1.,0.,4.12681584811335E-18));
#270=DIRECTION('',(0.,0.,-1.));
#271=DIRECTION('',(1.,0.,0.));
#272=CARTESIAN_POINT('',(0.,0.,0.));
#273=CARTESIAN_POINT('CRP',(5.7,0.,-113.305));
#274=CARTESIAN_POINT('',(0.,0.,-115.));
#275=CARTESIAN_POINT('',(0.,0.,-115.));
#276=CARTESIAN_POINT('',(0.,0.,-102.37));
#277=CARTESIAN_POINT('',(0.,0.,-89.74));
#278=CARTESIAN_POINT('',(0.,0.,-77.11));
#279=CARTESIAN_POINT('',(2.56500000000009,0.,-77.11));
#280=CARTESIAN_POINT('',(5.13000000000017,0.,-77.11));
#281=CARTESIAN_POINT('',(7.69500000000026,0.,-77.11));
#282=CARTESIAN_POINT('',(7.01620833333351,0.,-77.7887916666667));
#283=CARTESIAN_POINT('',(6.33741666666676,0.,-78.4675833333333));
#284=CARTESIAN_POINT('',(5.658625,0.,-79.146375));
#285=CARTESIAN_POINT('',(5.6653808548267,0.,-79.2752843893907));
#286=CARTESIAN_POINT('',(5.6721367096534,0.,-79.4041937787815));
#287=CARTESIAN_POINT('',(5.6788925644801,0.,-79.5331031681722));
#288=CARTESIAN_POINT('',(5.68592837632007,0.,-90.7904021121126));
#289=CARTESIAN_POINT('',(5.69296418816003,0.,-102.047701056055));
#290=CARTESIAN_POINT('',(5.7,0.,-113.304999999997));
#291=CARTESIAN_POINT('',(3.80000000000299,0.,-113.869999999999));
#292=CARTESIAN_POINT('',(1.90000000000149,0.,-114.435));
#293=CARTESIAN_POINT('',(0.,0.,-115.));
#294=CARTESIAN_POINT('',(0.,0.,0.));
#295=CARTESIAN_POINT('',(0.,0.,-48.));
#296=CARTESIAN_POINT('',(0.,0.,-115.));
#297=CARTESIAN_POINT('',(0.,0.,-48.9396674944017));
#298=CARTESIAN_POINT('',(7.69499999998639,0.,-48.9396674944017));
#299=CARTESIAN_POINT('',(0.,0.,-77.1100000000107));
#300=CARTESIAN_POINT('',(-7.69499999998959,0.,-77.1100000000107));
#301=CARTESIAN_POINT('',(0.,0.,18.5639167741778));
#302=CARTESIAN_POINT('',(0.,0.,-48.));
#303=CARTESIAN_POINT('',(8.,0.,-48.));
#304=CARTESIAN_POINT('',(0.,0.,-48.4698337472009));
#305=CARTESIAN_POINT('',(7.8474999999932,0.,-48.4698337472009));
#306=CARTESIAN_POINT('',(0.,0.,-48.));
#307=CARTESIAN_POINT('',(0.,0.,-48.9396674944017));
#308=CARTESIAN_POINT('',(0.,0.,0.));
#309=CARTESIAN_POINT('',(5.55,0.,0.));
#310=CARTESIAN_POINT('',(5.55,0.,2.22044604925031E-16));
#311=CARTESIAN_POINT('',(0.,0.,-2.45));
#312=CARTESIAN_POINT('',(8.,0.,-2.45));
#313=CARTESIAN_POINT('',(0.,0.,-2.45));
#314=CARTESIAN_POINT('',(0.,0.,18.5639167741778));
#315=CARTESIAN_POINT('',(0.,0.,-77.11));
#316=CARTESIAN_POINT('',(0.,0.,-77.11));
#317=CARTESIAN_POINT('',(7.69500000000026,0.,-77.11));
#318=CARTESIAN_POINT('',(0.,0.,-77.11));
#319=CARTESIAN_POINT('',(0.,0.,-79.146375));
#320=CARTESIAN_POINT('',(-5.658625,0.,-79.146375));
#321=CARTESIAN_POINT('',(0.,0.,-79.5331031681722));
#322=CARTESIAN_POINT('',(5.6788925644801,0.,-79.5331031681722));
#323=CARTESIAN_POINT('',(0.,0.,-79.146375));
#324=CARTESIAN_POINT('',(0.,0.,-79.105));
#325=CARTESIAN_POINT('',(-7.63833440942108E-14,0.,-115.));
#326=CARTESIAN_POINT('',(0.,0.,-113.304999999999));
#327=CARTESIAN_POINT('',(-5.7,0.,-113.304999999999));
#328=CARTESIAN_POINT('',(0.,0.,-115.));
#329=CARTESIAN_POINT('',(0.,0.,-133.305));
#330=MECHANICAL_DESIGN_GEOMETRIC_PRESENTATION_REPRESENTATION('',(#171,#172,
#173,#174,#175,#176,#177,#178),#331);
#331=(
GEOMETRIC_REPRESENTATION_CONTEXT(3)
GLOBAL_UNCERTAINTY_ASSIGNED_CONTEXT((#332))
GLOBAL_UNIT_ASSIGNED_CONTEXT((#338,#334,#333))
REPRESENTATION_CONTEXT('3925_1_3D','TOP_LEVEL_ASSEMBLY_PART')
);
#332=UNCERTAINTY_MEASURE_WITH_UNIT(LENGTH_MEASURE(2.E-5),#338,
'DISTANCE_ACCURACY_VALUE','Maximum Tolerance applied to model');
#333=(
NAMED_UNIT(*)
SI_UNIT($,.STERADIAN.)
SOLID_ANGLE_UNIT()
);
#334=(
CONVERSION_BASED_UNIT('DEGREE',#336)
NAMED_UNIT(#335)
PLANE_ANGLE_UNIT()
);
#335=DIMENSIONAL_EXPONENTS(0.,0.,0.,0.,0.,0.,0.);
#336=PLANE_ANGLE_MEASURE_WITH_UNIT(PLANE_ANGLE_MEASURE(0.0174532925),#337);
#337=(
NAMED_UNIT(*)
PLANE_ANGLE_UNIT()
SI_UNIT($,.RADIAN.)
);
#338=(
LENGTH_UNIT()
NAMED_UNIT(*)
SI_UNIT(.MILLI.,.METRE.)
);
ENDSEC;
END-ISO-10303-21;
