ISO-10303-21;
HEADER;
/* Generated by software containing ST-Developer
 * from STEP Tools, Inc. (www.steptools.com) 
 */
/* OPTION: using custom schema-name function */

FILE_DESCRIPTION(
/* description */ (''),
/* implementation_level */ '2;1');

FILE_NAME(
/* name */ '3942_1_3D.STP',
/* time_stamp */ '2024-07-24T07:29:19+02:00',
/* author */ (''),
/* organization */ ('SMS'),
/* preprocessor_version */ 'ST-DEVELOPER v16.7',
/* originating_system */ 'SIEMENS PLM Software NX 12.0',
/* authorisation */ '');

FILE_SCHEMA (('AUTOMOTIVE_DESIGN { 1 0 10303 214 3 1 1 1 }'));
ENDSEC;

DATA;
#10=CONSTRUCTIVE_GEOMETRY_REPRESENTATION_RELATIONSHIP(
'supplemental geometry','',#26,#11);
#11=CONSTRUCTIVE_GEOMETRY_REPRESENTATION('supplemental geometry',(#173,
#174,#175),#291);
#12=GEOMETRICALLY_BOUNDED_WIREFRAME_SHAPE_REPRESENTATION(
'3942_1_3D-None',(#27),#291);
#13=SHAPE_REPRESENTATION_RELATIONSHIP('None',
'relationship between 3942_1_3D-None and 3942_1_3D-None',#26,#15);
#14=SHAPE_REPRESENTATION_RELATIONSHIP('None',
'relationship between 3942_1_3D-None and 3942_1_3D-None',#26,#12);
#15=ADVANCED_BREP_SHAPE_REPRESENTATION('3942_1_3D-None',(#41,#42),#291);
#16=SHAPE_DEFINITION_REPRESENTATION(#17,#26);
#17=PRODUCT_DEFINITION_SHAPE('','',#18);
#18=PRODUCT_DEFINITION(' ','',#20,#19);
#19=PRODUCT_DEFINITION_CONTEXT('part definition',#25,'design');
#20=PRODUCT_DEFINITION_FORMATION_WITH_SPECIFIED_SOURCE(' ',' ',#22,
 .NOT_KNOWN.);
#21=PRODUCT_RELATED_PRODUCT_CATEGORY('part','',(#22));
#22=PRODUCT('3942_1_3D','3942_1_3D',' ',(#23));
#23=PRODUCT_CONTEXT(' ',#25,'mechanical');
#24=APPLICATION_PROTOCOL_DEFINITION('international standard',
'automotive_design',2010,#25);
#25=APPLICATION_CONTEXT(
'core data for automotive mechanical design processes');
#26=SHAPE_REPRESENTATION('3942_1_3D-None',(#172),#291);
#27=GEOMETRIC_CURVE_SET('None',(#239,#240,#147));
#28=VERTEX_LOOP('',#121);
#29=SURFACE_STYLE_USAGE(.BOTH.,#31);
#30=SURFACE_STYLE_USAGE(.BOTH.,#32);
#31=SURFACE_SIDE_STYLE('',(#33));
#32=SURFACE_SIDE_STYLE('',(#34));
#33=SURFACE_STYLE_FILL_AREA(#35);
#34=SURFACE_STYLE_FILL_AREA(#36);
#35=FILL_AREA_STYLE('',(#37));
#36=FILL_AREA_STYLE('',(#38));
#37=FILL_AREA_STYLE_COLOUR('',#39);
#38=FILL_AREA_STYLE_COLOUR('',#40);
#39=COLOUR_RGB('TLS_NOCUT',0.499992370489052,0.499992370489052,0.499992370489052);
#40=COLOUR_RGB('TLS_CUT',0.8,0.8,0.8);
#41=MANIFOLD_SOLID_BREP('NOCUT',#43);
#42=MANIFOLD_SOLID_BREP('CUT',#44);
#43=CLOSED_SHELL('',(#66,#67,#68,#69,#70));
#44=CLOSED_SHELL('',(#71,#72,#73,#74,#75));
#45=CYLINDRICAL_SURFACE('',#181,8.99999999999763);
#46=CONICAL_SURFACE('',#179,6.75,45.0000000000055);
#47=CONICAL_SURFACE('',#184,9.,45.);
#48=CONICAL_SURFACE('',#187,6.704687,3.);
#49=CONICAL_SURFACE('',#189,6.75,45.0000000000055);
#50=CONICAL_SURFACE('',#191,4.90765043295113E-14,73.4059434200226);
#51=CONICAL_SURFACE('',#192,6.76250000000001,0.0358098575329495);
#52=FACE_BOUND('',#83,.T.);
#53=FACE_BOUND('',#84,.T.);
#54=FACE_BOUND('',#85,.T.);
#55=FACE_BOUND('',#86,.T.);
#56=FACE_BOUND('',#88,.T.);
#57=FACE_BOUND('',#89,.T.);
#58=FACE_BOUND('',#90,.T.);
#59=FACE_BOUND('',#91,.T.);
#60=FACE_BOUND('',#92,.T.);
#61=FACE_BOUND('',#93,.T.);
#62=FACE_BOUND('',#28,.T.);
#63=FACE_BOUND('',#94,.T.);
#64=FACE_BOUND('',#95,.T.);
#65=FACE_BOUND('',#96,.T.);
#66=ADVANCED_FACE('',(#79),#76,.T.);
#67=ADVANCED_FACE('',(#52,#53),#46,.T.);
#68=ADVANCED_FACE('',(#54,#55),#45,.T.);
#69=ADVANCED_FACE('',(#80),#77,.T.);
#70=ADVANCED_FACE('',(#56,#57),#47,.T.);
#71=ADVANCED_FACE('',(#58,#59),#48,.T.);
#72=ADVANCED_FACE('',(#60,#61),#49,.T.);
#73=ADVANCED_FACE('',(#62,#63),#50,.T.);
#74=ADVANCED_FACE('',(#64,#65),#51,.T.);
#75=ADVANCED_FACE('',(#81),#78,.F.);
#76=PLANE('',#177);
#77=PLANE('',#183);
#78=PLANE('',#193);
#79=FACE_OUTER_BOUND('',#82,.T.);
#80=FACE_OUTER_BOUND('',#87,.T.);
#81=FACE_OUTER_BOUND('',#97,.T.);
#82=EDGE_LOOP('',(#98));
#83=EDGE_LOOP('',(#99));
#84=EDGE_LOOP('',(#100));
#85=EDGE_LOOP('',(#101));
#86=EDGE_LOOP('',(#102));
#87=EDGE_LOOP('',(#103));
#88=EDGE_LOOP('',(#104));
#89=EDGE_LOOP('',(#105));
#90=EDGE_LOOP('',(#106));
#91=EDGE_LOOP('',(#107));
#92=EDGE_LOOP('',(#108));
#93=EDGE_LOOP('',(#109));
#94=EDGE_LOOP('',(#110));
#95=EDGE_LOOP('',(#111));
#96=EDGE_LOOP('',(#112));
#97=EDGE_LOOP('',(#113));
#98=ORIENTED_EDGE('',*,*,#123,.F.);
#99=ORIENTED_EDGE('',*,*,#124,.T.);
#100=ORIENTED_EDGE('',*,*,#123,.T.);
#101=ORIENTED_EDGE('',*,*,#125,.T.);
#102=ORIENTED_EDGE('',*,*,#124,.F.);
#103=ORIENTED_EDGE('',*,*,#126,.F.);
#104=ORIENTED_EDGE('',*,*,#126,.T.);
#105=ORIENTED_EDGE('',*,*,#125,.F.);
#106=ORIENTED_EDGE('',*,*,#127,.T.);
#107=ORIENTED_EDGE('',*,*,#128,.T.);
#108=ORIENTED_EDGE('',*,*,#129,.F.);
#109=ORIENTED_EDGE('',*,*,#127,.F.);
#110=ORIENTED_EDGE('',*,*,#130,.T.);
#111=ORIENTED_EDGE('',*,*,#130,.F.);
#112=ORIENTED_EDGE('',*,*,#128,.F.);
#113=ORIENTED_EDGE('',*,*,#129,.T.);
#114=VERTEX_POINT('',#264);
#115=VERTEX_POINT('',#267);
#116=VERTEX_POINT('',#270);
#117=VERTEX_POINT('',#273);
#118=VERTEX_POINT('',#277);
#119=VERTEX_POINT('',#279);
#120=VERTEX_POINT('',#282);
#121=VERTEX_POINT('',#284);
#122=VERTEX_POINT('',#286);
#123=EDGE_CURVE('',#114,#114,#131,.T.);
#124=EDGE_CURVE('',#115,#115,#132,.T.);
#125=EDGE_CURVE('',#116,#116,#133,.T.);
#126=EDGE_CURVE('',#117,#117,#134,.T.);
#127=EDGE_CURVE('',#118,#118,#135,.T.);
#128=EDGE_CURVE('',#119,#119,#136,.T.);
#129=EDGE_CURVE('',#120,#120,#137,.T.);
#130=EDGE_CURVE('',#122,#122,#138,.T.);
#131=CIRCLE('',#176,8.99850000000043);
#132=CIRCLE('',#178,8.99999999999763);
#133=CIRCLE('',#180,9.);
#134=CIRCLE('',#182,6.25);
#135=CIRCLE('',#185,6.704687);
#136=CIRCLE('',#186,6.72495756147135);
#137=CIRCLE('',#188,8.99850000000043);
#138=CIRCLE('',#190,6.75000000000001);
#139=CURVE_STYLE('',#143,POSITIVE_LENGTH_MEASURE(0.18),#169);
#140=CURVE_STYLE('',#144,POSITIVE_LENGTH_MEASURE(0.13),#171);
#141=CURVE_STYLE('',#145,POSITIVE_LENGTH_MEASURE(0.13),#171);
#142=CURVE_STYLE('',#146,POSITIVE_LENGTH_MEASURE(0.13),#171);
#143=DRAUGHTING_PRE_DEFINED_CURVE_FONT('continuous');
#144=DRAUGHTING_PRE_DEFINED_CURVE_FONT('continuous');
#145=DRAUGHTING_PRE_DEFINED_CURVE_FONT('continuous');
#146=DRAUGHTING_PRE_DEFINED_CURVE_FONT('continuous');
#147=B_SPLINE_CURVE_WITH_KNOTS('CUTTING PART LINE',3,(#241,#242,#243,#244,
#245,#246,#247,#248,#249,#250,#251,#252,#253,#254,#255,#256,#257,#258,#259),
 .UNSPECIFIED.,.T.,.F.,(4,3,3,3,3,3,4),(0.,0.428321232827876,0.49572096219286,
0.879142239710895,0.882848578720648,0.913890781644287,1.),.UNSPECIFIED.);
#148=PRESENTATION_LAYER_ASSIGNMENT('1','Layer 1',(#239,#240,#147,#173,#174,
#175,#41,#42));
#149=STYLED_ITEM('',(#157),#239);
#150=STYLED_ITEM('',(#158),#240);
#151=STYLED_ITEM('',(#159),#147);
#152=STYLED_ITEM('',(#160),#173);
#153=STYLED_ITEM('',(#161),#174);
#154=STYLED_ITEM('',(#162),#175);
#155=STYLED_ITEM('',(#163),#41);
#156=STYLED_ITEM('',(#164),#42);
#157=PRESENTATION_STYLE_ASSIGNMENT((#165));
#158=PRESENTATION_STYLE_ASSIGNMENT((#166));
#159=PRESENTATION_STYLE_ASSIGNMENT((#139));
#160=PRESENTATION_STYLE_ASSIGNMENT((#140));
#161=PRESENTATION_STYLE_ASSIGNMENT((#141));
#162=PRESENTATION_STYLE_ASSIGNMENT((#142));
#163=PRESENTATION_STYLE_ASSIGNMENT((#29));
#164=PRESENTATION_STYLE_ASSIGNMENT((#30));
#165=POINT_STYLE('',#167,POSITIVE_LENGTH_MEASURE(3.),#169);
#166=POINT_STYLE('',#168,POSITIVE_LENGTH_MEASURE(3.),#170);
#167=PRE_DEFINED_POINT_MARKER_SYMBOL('plus');
#168=PRE_DEFINED_POINT_MARKER_SYMBOL('plus');
#169=DRAUGHTING_PRE_DEFINED_COLOUR('blue');
#170=DRAUGHTING_PRE_DEFINED_COLOUR('white');
#171=DRAUGHTING_PRE_DEFINED_COLOUR('green');
#172=AXIS2_PLACEMENT_3D('',#238,#194,#195);
#173=AXIS2_PLACEMENT_3D('PCS',#260,#196,#197);
#174=AXIS2_PLACEMENT_3D('MCS',#261,#198,#199);
#175=AXIS2_PLACEMENT_3D('CIP',#262,#200,#201);
#176=AXIS2_PLACEMENT_3D('',#263,#202,#203);
#177=AXIS2_PLACEMENT_3D('',#265,#204,#205);
#178=AXIS2_PLACEMENT_3D('',#266,#206,#207);
#179=AXIS2_PLACEMENT_3D('',#268,#208,#209);
#180=AXIS2_PLACEMENT_3D('',#269,#210,#211);
#181=AXIS2_PLACEMENT_3D('',#271,#212,#213);
#182=AXIS2_PLACEMENT_3D('',#272,#214,#215);
#183=AXIS2_PLACEMENT_3D('',#274,#216,#217);
#184=AXIS2_PLACEMENT_3D('',#275,#218,#219);
#185=AXIS2_PLACEMENT_3D('',#276,#220,#221);
#186=AXIS2_PLACEMENT_3D('',#278,#222,#223);
#187=AXIS2_PLACEMENT_3D('',#280,#224,#225);
#188=AXIS2_PLACEMENT_3D('',#281,#226,#227);
#189=AXIS2_PLACEMENT_3D('',#283,#228,#229);
#190=AXIS2_PLACEMENT_3D('',#285,#230,#231);
#191=AXIS2_PLACEMENT_3D('',#287,#232,#233);
#192=AXIS2_PLACEMENT_3D('',#288,#234,#235);
#193=AXIS2_PLACEMENT_3D('',#289,#236,#237);
#194=DIRECTION('',(0.,0.,1.));
#195=DIRECTION('',(1.,0.,0.));
#196=DIRECTION('',(0.,0.,1.));
#197=DIRECTION('',(1.,0.,0.));
#198=DIRECTION('',(0.,0.,1.));
#199=DIRECTION('',(1.,0.,0.));
#200=DIRECTION('',(0.,0.,1.));
#201=DIRECTION('',(1.,0.,0.));
#202=DIRECTION('',(0.,0.,1.));
#203=DIRECTION('',(1.,0.,0.));
#204=DIRECTION('',(0.,0.,-1.));
#205=DIRECTION('',(1.,0.,0.));
#206=DIRECTION('',(0.,0.,-1.));
#207=DIRECTION('',(-1.,0.,0.));
#208=DIRECTION('',(0.,0.,1.));
#209=DIRECTION('',(-1.,0.,4.13542224220864E-17));
#210=DIRECTION('',(0.,0.,-1.));
#211=DIRECTION('',(1.,0.,0.));
#212=DIRECTION('',(0.,0.,1.));
#213=DIRECTION('',(-1.,0.,0.));
#214=DIRECTION('',(0.,0.,-1.));
#215=DIRECTION('',(1.,0.,0.));
#216=DIRECTION('',(0.,0.,1.));
#217=DIRECTION('',(-1.,0.,0.));
#218=DIRECTION('',(0.,0.,-1.));
#219=DIRECTION('',(1.,0.,-3.09465040313008E-17));
#220=DIRECTION('',(0.,0.,-1.));
#221=DIRECTION('',(-1.,0.,0.));
#222=DIRECTION('',(0.,0.,1.));
#223=DIRECTION('',(1.,0.,0.));
#224=DIRECTION('',(0.,0.,-1.));
#225=DIRECTION('',(1.,0.,7.04307670468279E-16));
#226=DIRECTION('',(0.,0.,1.));
#227=DIRECTION('',(1.,0.,0.));
#228=DIRECTION('',(0.,0.,1.));
#229=DIRECTION('',(-1.,0.,4.13542224220864E-17));
#230=DIRECTION('',(0.,0.,-1.));
#231=DIRECTION('',(-1.,0.,0.));
#232=DIRECTION('',(0.,0.,1.));
#233=DIRECTION('',(-1.,0.,4.13558076672877E-18));
#234=DIRECTION('',(0.,0.,-1.));
#235=DIRECTION('',(1.,0.,3.75709991412899E-15));
#236=DIRECTION('',(0.,0.,-1.));
#237=DIRECTION('',(1.,0.,0.));
#238=CARTESIAN_POINT('',(0.,0.,0.));
#239=CARTESIAN_POINT('CRP',(6.75,0.,-120.9885));
#240=CARTESIAN_POINT('',(0.,0.,-123.));
#241=CARTESIAN_POINT('',(0.,0.,-78.24));
#242=CARTESIAN_POINT('',(0.,0.,-93.16));
#243=CARTESIAN_POINT('',(0.,0.,-108.08));
#244=CARTESIAN_POINT('',(0.,0.,-123.));
#245=CARTESIAN_POINT('',(2.24999999999882,0.,-122.3295));
#246=CARTESIAN_POINT('',(4.49999999999763,0.,-121.659000000001));
#247=CARTESIAN_POINT('',(6.74999999999645,0.,-120.988500000001));
#248=CARTESIAN_POINT('',(6.74165252049045,0.,-107.632532784725));
#249=CARTESIAN_POINT('',(6.7333050409809,0.,-94.2765655694486));
#250=CARTESIAN_POINT('',(6.72495756147135,0.,-80.9205983541723));
#251=CARTESIAN_POINT('',(6.71820070764757,0.,-80.7916699027812));
#252=CARTESIAN_POINT('',(6.71144385382378,0.,-80.6627414513906));
#253=CARTESIAN_POINT('',(6.704687,0.,-80.533813));
#254=CARTESIAN_POINT('',(7.46929133333348,0.,-79.7692086666667));
#255=CARTESIAN_POINT('',(8.23389566666696,0.,-79.0046043333333));
#256=CARTESIAN_POINT('',(8.99850000000044,0.,-78.24));
#257=CARTESIAN_POINT('',(5.99900000000029,0.,-78.24));
#258=CARTESIAN_POINT('',(2.99950000000014,0.,-78.24));
#259=CARTESIAN_POINT('',(0.,0.,-78.24));
#260=CARTESIAN_POINT('',(0.,0.,0.));
#261=CARTESIAN_POINT('',(0.,0.,-48.));
#262=CARTESIAN_POINT('',(0.,0.,-123.));
#263=CARTESIAN_POINT('',(0.,0.,-78.24));
#264=CARTESIAN_POINT('',(8.99850000000043,0.,-78.24));
#265=CARTESIAN_POINT('',(0.,0.,-78.24));
#266=CARTESIAN_POINT('',(0.,0.,-78.2385000000028));
#267=CARTESIAN_POINT('',(-8.99999999999763,0.,-78.2385000000028));
#268=CARTESIAN_POINT('',(0.,0.,-80.4885));
#269=CARTESIAN_POINT('',(0.,0.,-2.75));
#270=CARTESIAN_POINT('',(9.,0.,-2.75));
#271=CARTESIAN_POINT('',(0.,0.,18.5639167741778));
#272=CARTESIAN_POINT('',(0.,0.,0.));
#273=CARTESIAN_POINT('',(6.25,0.,0.));
#274=CARTESIAN_POINT('',(6.25,0.,2.22044604925031E-16));
#275=CARTESIAN_POINT('',(0.,0.,-2.75));
#276=CARTESIAN_POINT('',(0.,0.,-80.533813));
#277=CARTESIAN_POINT('',(-6.704687,0.,-80.533813));
#278=CARTESIAN_POINT('',(0.,0.,-80.9205983541718));
#279=CARTESIAN_POINT('',(6.72495756147135,0.,-80.9205983541718));
#280=CARTESIAN_POINT('',(0.,0.,-80.533813));
#281=CARTESIAN_POINT('',(0.,0.,-78.24));
#282=CARTESIAN_POINT('',(8.99850000000043,0.,-78.24));
#283=CARTESIAN_POINT('',(0.,0.,-80.4885));
#284=CARTESIAN_POINT('',(-4.70734562441066E-14,0.,-123.));
#285=CARTESIAN_POINT('',(0.,0.,-120.988500000001));
#286=CARTESIAN_POINT('',(-6.75000000000001,0.,-120.988500000001));
#287=CARTESIAN_POINT('',(0.,0.,-123.));
#288=CARTESIAN_POINT('',(0.,0.,-140.9885));
#289=CARTESIAN_POINT('',(0.,0.,-78.24));
#290=MECHANICAL_DESIGN_GEOMETRIC_PRESENTATION_REPRESENTATION('',(#149,#150,
#151,#152,#153,#154,#155,#156),#291);
#291=(
GEOMETRIC_REPRESENTATION_CONTEXT(3)
GLOBAL_UNCERTAINTY_ASSIGNED_CONTEXT((#292))
GLOBAL_UNIT_ASSIGNED_CONTEXT((#298,#294,#293))
REPRESENTATION_CONTEXT('3942_1_3D','TOP_LEVEL_ASSEMBLY_PART')
);
#292=UNCERTAINTY_MEASURE_WITH_UNIT(LENGTH_MEASURE(2.E-5),#298,
'DISTANCE_ACCURACY_VALUE','Maximum Tolerance applied to model');
#293=(
NAMED_UNIT(*)
SI_UNIT($,.STERADIAN.)
SOLID_ANGLE_UNIT()
);
#294=(
CONVERSION_BASED_UNIT('DEGREE',#296)
NAMED_UNIT(#295)
PLANE_ANGLE_UNIT()
);
#295=DIMENSIONAL_EXPONENTS(0.,0.,0.,0.,0.,0.,0.);
#296=PLANE_ANGLE_MEASURE_WITH_UNIT(PLANE_ANGLE_MEASURE(0.0174532925),#297);
#297=(
NAMED_UNIT(*)
PLANE_ANGLE_UNIT()
SI_UNIT($,.RADIAN.)
);
#298=(
LENGTH_UNIT()
NAMED_UNIT(*)
SI_UNIT(.MILLI.,.METRE.)
);
ENDSEC;
END-ISO-10303-21;
