ISO-10303-21;
HEADER;
/* Generated by software containing ST-Developer
 * from STEP Tools, Inc. (www.steptools.com) 
 */
/* OPTION: using custom schema-name function */

FILE_DESCRIPTION(
/* description */ (''),
/* implementation_level */ '2;1');

FILE_NAME(
/* name */ '3955_1_3D.STP',
/* time_stamp */ '2024-07-24T07:32:01+02:00',
/* author */ (''),
/* organization */ ('SMS'),
/* preprocessor_version */ 'ST-DEVELOPER v16.7',
/* originating_system */ 'SIEMENS PLM Software NX 12.0',
/* authorisation */ '');

FILE_SCHEMA (('AUTOMOTIVE_DESIGN { 1 0 10303 214 3 1 1 1 }'));
ENDSEC;

DATA;
#10=CONSTRUCTIVE_GEOMETRY_REPRESENTATION_RELATIONSHIP(
'supplemental geometry','',#26,#11);
#11=CONSTRUCTIVE_GEOMETRY_REPRESENTATION('supplemental geometry',(#195,
#196,#197),#334);
#12=GEOMETRICALLY_BOUNDED_WIREFRAME_SHAPE_REPRESENTATION(
'3955_1_3D-None',(#27),#334);
#13=SHAPE_REPRESENTATION_RELATIONSHIP('None',
'relationship between 3955_1_3D-None and 3955_1_3D-None',#26,#15);
#14=SHAPE_REPRESENTATION_RELATIONSHIP('None',
'relationship between 3955_1_3D-None and 3955_1_3D-None',#26,#12);
#15=ADVANCED_BREP_SHAPE_REPRESENTATION('3955_1_3D-None',(#41,#42),#334);
#16=SHAPE_DEFINITION_REPRESENTATION(#17,#26);
#17=PRODUCT_DEFINITION_SHAPE('','',#18);
#18=PRODUCT_DEFINITION(' ','',#20,#19);
#19=PRODUCT_DEFINITION_CONTEXT('part definition',#25,'design');
#20=PRODUCT_DEFINITION_FORMATION_WITH_SPECIFIED_SOURCE(' ',' ',#22,
 .NOT_KNOWN.);
#21=PRODUCT_RELATED_PRODUCT_CATEGORY('part','',(#22));
#22=PRODUCT('3955_1_3D','3955_1_3D',' ',(#23));
#23=PRODUCT_CONTEXT(' ',#25,'mechanical');
#24=APPLICATION_PROTOCOL_DEFINITION('international standard',
'automotive_design',2010,#25);
#25=APPLICATION_CONTEXT(
'core data for automotive mechanical design processes');
#26=SHAPE_REPRESENTATION('3955_1_3D-None',(#194),#334);
#27=GEOMETRIC_CURVE_SET('None',(#273,#274,#169));
#28=VERTEX_LOOP('',#139);
#29=SURFACE_STYLE_USAGE(.BOTH.,#31);
#30=SURFACE_STYLE_USAGE(.BOTH.,#32);
#31=SURFACE_SIDE_STYLE('',(#33));
#32=SURFACE_SIDE_STYLE('',(#34));
#33=SURFACE_STYLE_FILL_AREA(#35);
#34=SURFACE_STYLE_FILL_AREA(#36);
#35=FILL_AREA_STYLE('',(#37));
#36=FILL_AREA_STYLE('',(#38));
#37=FILL_AREA_STYLE_COLOUR('',#39);
#38=FILL_AREA_STYLE_COLOUR('',#40);
#39=COLOUR_RGB('TLS_NOCUT',0.499992370489052,0.499992370489052,0.499992370489052);
#40=COLOUR_RGB('TLS_CUT',0.8,0.8,0.8);
#41=MANIFOLD_SOLID_BREP('NOCUT',#43);
#42=MANIFOLD_SOLID_BREP('CUT',#44);
#43=CLOSED_SHELL('',(#57,#58,#59,#60,#61,#62));
#44=CLOSED_SHELL('',(#63,#64,#65,#66,#67,#68));
#45=PLANE('',#204);
#46=PLANE('',#208);
#47=PLANE('',#210);
#48=FACE_OUTER_BOUND('',#94,.T.);
#49=FACE_OUTER_BOUND('',#99,.T.);
#50=FACE_OUTER_BOUND('',#100,.T.);
#51=CONICAL_SURFACE('',#202,9.99000000001148,0.381966204290374);
#52=CONICAL_SURFACE('',#206,10.,45.0000000000001);
#53=CONICAL_SURFACE('',#215,7.35225,2.99999999999998);
#54=CONICAL_SURFACE('',#216,7.4,45.0000000000005);
#55=CONICAL_SURFACE('',#218,1.29674049276218E-13,73.3903001141016);
#56=CONICAL_SURFACE('',#219,7.41250000000001,0.0358098575329515);
#57=ADVANCED_FACE('',(#72,#73),#69,.T.);
#58=ADVANCED_FACE('',(#74,#75),#51,.T.);
#59=ADVANCED_FACE('',(#48),#45,.T.);
#60=ADVANCED_FACE('',(#76,#77),#52,.T.);
#61=ADVANCED_FACE('SHANK',(#78,#79),#70,.T.);
#62=ADVANCED_FACE('',(#49),#46,.T.);
#63=ADVANCED_FACE('',(#50),#47,.F.);
#64=ADVANCED_FACE('',(#80,#81),#71,.T.);
#65=ADVANCED_FACE('',(#82,#83),#53,.T.);
#66=ADVANCED_FACE('',(#84,#85),#54,.T.);
#67=ADVANCED_FACE('',(#86,#87),#55,.T.);
#68=ADVANCED_FACE('',(#88,#89),#56,.T.);
#69=CYLINDRICAL_SURFACE('',#200,9.9900000000086);
#70=CYLINDRICAL_SURFACE('',#207,10.);
#71=CYLINDRICAL_SURFACE('',#212,9.9900000000086);
#72=FACE_BOUND('',#90,.T.);
#73=FACE_BOUND('',#91,.T.);
#74=FACE_BOUND('',#92,.T.);
#75=FACE_BOUND('',#93,.T.);
#76=FACE_BOUND('',#95,.T.);
#77=FACE_BOUND('',#96,.T.);
#78=FACE_BOUND('',#97,.T.);
#79=FACE_BOUND('',#98,.T.);
#80=FACE_BOUND('',#101,.T.);
#81=FACE_BOUND('',#102,.T.);
#82=FACE_BOUND('',#103,.T.);
#83=FACE_BOUND('',#104,.T.);
#84=FACE_BOUND('',#105,.T.);
#85=FACE_BOUND('',#106,.T.);
#86=FACE_BOUND('',#28,.T.);
#87=FACE_BOUND('',#107,.T.);
#88=FACE_BOUND('',#108,.T.);
#89=FACE_BOUND('',#109,.T.);
#90=EDGE_LOOP('',(#110));
#91=EDGE_LOOP('',(#111));
#92=EDGE_LOOP('',(#112));
#93=EDGE_LOOP('',(#113));
#94=EDGE_LOOP('',(#114));
#95=EDGE_LOOP('',(#115));
#96=EDGE_LOOP('',(#116));
#97=EDGE_LOOP('',(#117));
#98=EDGE_LOOP('',(#118));
#99=EDGE_LOOP('',(#119));
#100=EDGE_LOOP('',(#120));
#101=EDGE_LOOP('',(#121));
#102=EDGE_LOOP('',(#122));
#103=EDGE_LOOP('',(#123));
#104=EDGE_LOOP('',(#124));
#105=EDGE_LOOP('',(#125));
#106=EDGE_LOOP('',(#126));
#107=EDGE_LOOP('',(#127));
#108=EDGE_LOOP('',(#128));
#109=EDGE_LOOP('',(#129));
#110=ORIENTED_EDGE('',*,*,#141,.F.);
#111=ORIENTED_EDGE('',*,*,#142,.F.);
#112=ORIENTED_EDGE('',*,*,#143,.T.);
#113=ORIENTED_EDGE('',*,*,#141,.T.);
#114=ORIENTED_EDGE('',*,*,#144,.F.);
#115=ORIENTED_EDGE('',*,*,#144,.T.);
#116=ORIENTED_EDGE('',*,*,#145,.F.);
#117=ORIENTED_EDGE('',*,*,#145,.T.);
#118=ORIENTED_EDGE('',*,*,#143,.F.);
#119=ORIENTED_EDGE('',*,*,#142,.T.);
#120=ORIENTED_EDGE('',*,*,#146,.F.);
#121=ORIENTED_EDGE('',*,*,#146,.T.);
#122=ORIENTED_EDGE('',*,*,#147,.F.);
#123=ORIENTED_EDGE('',*,*,#148,.T.);
#124=ORIENTED_EDGE('',*,*,#149,.T.);
#125=ORIENTED_EDGE('',*,*,#148,.F.);
#126=ORIENTED_EDGE('',*,*,#147,.T.);
#127=ORIENTED_EDGE('',*,*,#150,.T.);
#128=ORIENTED_EDGE('',*,*,#150,.F.);
#129=ORIENTED_EDGE('',*,*,#149,.F.);
#130=VERTEX_POINT('',#301);
#131=VERTEX_POINT('',#303);
#132=VERTEX_POINT('',#306);
#133=VERTEX_POINT('',#309);
#134=VERTEX_POINT('',#312);
#135=VERTEX_POINT('',#317);
#136=VERTEX_POINT('',#320);
#137=VERTEX_POINT('',#323);
#138=VERTEX_POINT('',#325);
#139=VERTEX_POINT('',#328);
#140=VERTEX_POINT('',#330);
#141=EDGE_CURVE('',#130,#130,#151,.T.);
#142=EDGE_CURVE('',#131,#131,#152,.T.);
#143=EDGE_CURVE('',#132,#132,#153,.T.);
#144=EDGE_CURVE('',#133,#133,#154,.T.);
#145=EDGE_CURVE('',#134,#134,#155,.T.);
#146=EDGE_CURVE('',#135,#135,#156,.T.);
#147=EDGE_CURVE('',#136,#136,#157,.T.);
#148=EDGE_CURVE('',#137,#137,#158,.T.);
#149=EDGE_CURVE('',#138,#138,#159,.T.);
#150=EDGE_CURVE('',#140,#140,#160,.T.);
#151=CIRCLE('',#198,9.9900000000086);
#152=CIRCLE('',#199,9.9900000000086);
#153=CIRCLE('',#201,10.);
#154=CIRCLE('',#203,6.745);
#155=CIRCLE('',#205,10.);
#156=CIRCLE('',#209,9.9900000000086);
#157=CIRCLE('',#211,9.9900000000086);
#158=CIRCLE('',#213,7.35225);
#159=CIRCLE('',#214,7.37252159694511);
#160=CIRCLE('',#217,7.40000000000001);
#161=CURVE_STYLE('',#165,POSITIVE_LENGTH_MEASURE(0.18),#191);
#162=CURVE_STYLE('',#166,POSITIVE_LENGTH_MEASURE(0.13),#193);
#163=CURVE_STYLE('',#167,POSITIVE_LENGTH_MEASURE(0.13),#193);
#164=CURVE_STYLE('',#168,POSITIVE_LENGTH_MEASURE(0.13),#193);
#165=DRAUGHTING_PRE_DEFINED_CURVE_FONT('continuous');
#166=DRAUGHTING_PRE_DEFINED_CURVE_FONT('continuous');
#167=DRAUGHTING_PRE_DEFINED_CURVE_FONT('continuous');
#168=DRAUGHTING_PRE_DEFINED_CURVE_FONT('continuous');
#169=B_SPLINE_CURVE_WITH_KNOTS('CUTTING PART LINE',3,(#275,#276,#277,#278,
#279,#280,#281,#282,#283,#284,#285,#286,#287,#288,#289,#290,#291,#292,#293,
#294,#295,#296),.UNSPECIFIED.,.T.,.F.,(4,3,3,3,3,3,3,4),(0.,0.427833725073292,
0.514704841201054,0.514727450300272,0.547165784414147,0.550533983178174,
0.932849099730473,1.),.UNSPECIFIED.);
#170=PRESENTATION_LAYER_ASSIGNMENT('1','Layer 1',(#273,#274,#169,#195,#196,
#197,#41,#42));
#171=STYLED_ITEM('',(#179),#273);
#172=STYLED_ITEM('',(#180),#274);
#173=STYLED_ITEM('',(#181),#169);
#174=STYLED_ITEM('',(#182),#195);
#175=STYLED_ITEM('',(#183),#196);
#176=STYLED_ITEM('',(#184),#197);
#177=STYLED_ITEM('',(#185),#41);
#178=STYLED_ITEM('',(#186),#42);
#179=PRESENTATION_STYLE_ASSIGNMENT((#187));
#180=PRESENTATION_STYLE_ASSIGNMENT((#188));
#181=PRESENTATION_STYLE_ASSIGNMENT((#161));
#182=PRESENTATION_STYLE_ASSIGNMENT((#162));
#183=PRESENTATION_STYLE_ASSIGNMENT((#163));
#184=PRESENTATION_STYLE_ASSIGNMENT((#164));
#185=PRESENTATION_STYLE_ASSIGNMENT((#29));
#186=PRESENTATION_STYLE_ASSIGNMENT((#30));
#187=POINT_STYLE('',#189,POSITIVE_LENGTH_MEASURE(3.),#191);
#188=POINT_STYLE('',#190,POSITIVE_LENGTH_MEASURE(3.),#192);
#189=PRE_DEFINED_POINT_MARKER_SYMBOL('plus');
#190=PRE_DEFINED_POINT_MARKER_SYMBOL('plus');
#191=DRAUGHTING_PRE_DEFINED_COLOUR('blue');
#192=DRAUGHTING_PRE_DEFINED_COLOUR('white');
#193=DRAUGHTING_PRE_DEFINED_COLOUR('green');
#194=AXIS2_PLACEMENT_3D('',#272,#220,#221);
#195=AXIS2_PLACEMENT_3D('PCS',#297,#222,#223);
#196=AXIS2_PLACEMENT_3D('MCS',#298,#224,#225);
#197=AXIS2_PLACEMENT_3D('CIP',#299,#226,#227);
#198=AXIS2_PLACEMENT_3D('',#300,#228,#229);
#199=AXIS2_PLACEMENT_3D('',#302,#230,#231);
#200=AXIS2_PLACEMENT_3D('',#304,#232,#233);
#201=AXIS2_PLACEMENT_3D('',#305,#234,#235);
#202=AXIS2_PLACEMENT_3D('',#307,#236,#237);
#203=AXIS2_PLACEMENT_3D('',#308,#238,#239);
#204=AXIS2_PLACEMENT_3D('',#310,#240,#241);
#205=AXIS2_PLACEMENT_3D('',#311,#242,#243);
#206=AXIS2_PLACEMENT_3D('',#313,#244,#245);
#207=AXIS2_PLACEMENT_3D('',#314,#246,#247);
#208=AXIS2_PLACEMENT_3D('',#315,#248,#249);
#209=AXIS2_PLACEMENT_3D('',#316,#250,#251);
#210=AXIS2_PLACEMENT_3D('',#318,#252,#253);
#211=AXIS2_PLACEMENT_3D('',#319,#254,#255);
#212=AXIS2_PLACEMENT_3D('',#321,#256,#257);
#213=AXIS2_PLACEMENT_3D('',#322,#258,#259);
#214=AXIS2_PLACEMENT_3D('',#324,#260,#261);
#215=AXIS2_PLACEMENT_3D('',#326,#262,#263);
#216=AXIS2_PLACEMENT_3D('',#327,#264,#265);
#217=AXIS2_PLACEMENT_3D('',#329,#266,#267);
#218=AXIS2_PLACEMENT_3D('',#331,#268,#269);
#219=AXIS2_PLACEMENT_3D('',#332,#270,#271);
#220=DIRECTION('',(0.,0.,1.));
#221=DIRECTION('',(1.,0.,0.));
#222=DIRECTION('',(0.,0.,1.));
#223=DIRECTION('',(1.,0.,0.));
#224=DIRECTION('',(0.,0.,1.));
#225=DIRECTION('',(1.,0.,0.));
#226=DIRECTION('',(0.,0.,1.));
#227=DIRECTION('',(1.,0.,0.));
#228=DIRECTION('',(0.,0.,1.));
#229=DIRECTION('',(1.,0.,0.));
#230=DIRECTION('',(0.,0.,-1.));
#231=DIRECTION('',(1.,0.,0.));
#232=DIRECTION('',(0.,0.,1.));
#233=DIRECTION('',(-1.,0.,0.));
#234=DIRECTION('',(0.,0.,-1.));
#235=DIRECTION('',(1.,0.,0.));
#236=DIRECTION('',(0.,0.,1.));
#237=DIRECTION('',(-1.,0.,1.66633433830504E-15));
#238=DIRECTION('',(0.,0.,-1.));
#239=DIRECTION('',(1.,0.,0.));
#240=DIRECTION('',(0.,0.,1.));
#241=DIRECTION('',(-1.,0.,0.));
#242=DIRECTION('',(0.,0.,-1.));
#243=DIRECTION('',(1.,0.,0.));
#244=DIRECTION('',(0.,0.,-1.));
#245=DIRECTION('',(1.,0.,-1.37403839681331E-17));
#246=DIRECTION('',(0.,0.,-1.));
#247=DIRECTION('',(1.,0.,0.));
#248=DIRECTION('',(0.,0.,-1.));
#249=DIRECTION('',(1.,0.,0.));
#250=DIRECTION('',(0.,0.,-1.));
#251=DIRECTION('',(1.,0.,0.));
#252=DIRECTION('',(0.,0.,-1.));
#253=DIRECTION('',(1.,0.,0.));
#254=DIRECTION('',(0.,0.,-1.));
#255=DIRECTION('',(-1.,0.,0.));
#256=DIRECTION('',(0.,0.,1.));
#257=DIRECTION('',(-1.,0.,0.));
#258=DIRECTION('',(0.,0.,-1.));
#259=DIRECTION('',(-1.,0.,0.));
#260=DIRECTION('',(0.,0.,1.));
#261=DIRECTION('',(1.,0.,0.));
#262=DIRECTION('',(0.,0.,-1.));
#263=DIRECTION('',(1.,0.,-2.32225251130404E-16));
#264=DIRECTION('',(0.,0.,1.));
#265=DIRECTION('',(-1.,0.,0.));
#266=DIRECTION('',(0.,0.,-1.));
#267=DIRECTION('',(-1.,0.,0.));
#268=DIRECTION('',(0.,0.,1.));
#269=DIRECTION('',(-1.,0.,8.27941319107292E-18));
#270=DIRECTION('',(0.,0.,-1.));
#271=DIRECTION('',(1.,0.,0.));
#272=CARTESIAN_POINT('',(0.,0.,0.));
#273=CARTESIAN_POINT('CRP',(7.4,0.,-139.7926));
#274=CARTESIAN_POINT('',(0.,0.,-142.));
#275=CARTESIAN_POINT('',(0.,0.,-142.));
#276=CARTESIAN_POINT('',(0.,0.,-125.6));
#277=CARTESIAN_POINT('',(0.,0.,-109.2));
#278=CARTESIAN_POINT('',(0.,0.,-92.8));
#279=CARTESIAN_POINT('',(3.33000000000287,0.,-92.8));
#280=CARTESIAN_POINT('',(6.66000000000574,0.,-92.8));
#281=CARTESIAN_POINT('',(9.9900000000086,0.,-92.8));
#282=CARTESIAN_POINT('',(9.9900000000086,0.,-92.8008666666639));
#283=CARTESIAN_POINT('',(9.9900000000086,0.,-92.8017333333277));
#284=CARTESIAN_POINT('',(9.9900000000086,0.,-92.8025999999915));
#285=CARTESIAN_POINT('',(9.11075000000574,0.,-93.6818499999943));
#286=CARTESIAN_POINT('',(8.23150000000287,0.,-94.5610999999972));
#287=CARTESIAN_POINT('',(7.35225,0.,-95.44035));
#288=CARTESIAN_POINT('',(7.3590071989817,0.,-95.5692850373961));
#289=CARTESIAN_POINT('',(7.36576439796341,0.,-95.6982200747922));
#290=CARTESIAN_POINT('',(7.37252159694511,0.,-95.8271551121883));
#291=CARTESIAN_POINT('',(7.38168106463008,0.,-110.482303408125));
#292=CARTESIAN_POINT('',(7.39084053231504,0.,-125.137451704063));
#293=CARTESIAN_POINT('',(7.40000000000001,0.,-139.7926));
#294=CARTESIAN_POINT('',(4.93333333333386,0.,-140.5284));
#295=CARTESIAN_POINT('',(2.46666666666693,0.,-141.2642));
#296=CARTESIAN_POINT('',(0.,0.,-142.));
#297=CARTESIAN_POINT('',(0.,0.,0.));
#298=CARTESIAN_POINT('',(0.,0.,-50.));
#299=CARTESIAN_POINT('',(0.,0.,-142.));
#300=CARTESIAN_POINT('',(0.,0.,-51.5));
#301=CARTESIAN_POINT('',(9.9900000000086,0.,-51.5));
#302=CARTESIAN_POINT('',(0.,0.,-92.8));
#303=CARTESIAN_POINT('',(9.9900000000086,0.,-92.8));
#304=CARTESIAN_POINT('',(0.,0.,18.5639167741778));
#305=CARTESIAN_POINT('',(0.,0.,-50.));
#306=CARTESIAN_POINT('',(10.,0.,-50.));
#307=CARTESIAN_POINT('',(0.,0.,-51.5));
#308=CARTESIAN_POINT('',(0.,0.,0.));
#309=CARTESIAN_POINT('',(6.745,0.,0.));
#310=CARTESIAN_POINT('',(6.745,0.,4.44089209850063E-16));
#311=CARTESIAN_POINT('',(0.,0.,-3.25499999999999));
#312=CARTESIAN_POINT('',(10.,0.,-3.25499999999999));
#313=CARTESIAN_POINT('',(0.,0.,-3.25499999999999));
#314=CARTESIAN_POINT('',(0.,0.,18.5639167741778));
#315=CARTESIAN_POINT('',(0.,0.,-92.8));
#316=CARTESIAN_POINT('',(0.,0.,-92.8));
#317=CARTESIAN_POINT('',(9.9900000000086,0.,-92.8));
#318=CARTESIAN_POINT('',(0.,0.,-92.8));
#319=CARTESIAN_POINT('',(0.,0.,-92.8025999999915));
#320=CARTESIAN_POINT('',(-9.9900000000086,0.,-92.8025999999915));
#321=CARTESIAN_POINT('',(0.,0.,18.5639167741778));
#322=CARTESIAN_POINT('',(0.,0.,-95.4403500000001));
#323=CARTESIAN_POINT('',(-7.35225,0.,-95.4403500000001));
#324=CARTESIAN_POINT('',(0.,0.,-95.8271551121883));
#325=CARTESIAN_POINT('',(7.37252159694511,0.,-95.8271551121883));
#326=CARTESIAN_POINT('',(0.,0.,-95.4403500000001));
#327=CARTESIAN_POINT('',(0.,0.,-95.3926));
#328=CARTESIAN_POINT('',(1.29674049276218E-13,0.,-142.));
#329=CARTESIAN_POINT('',(0.,0.,-139.7926));
#330=CARTESIAN_POINT('',(-7.40000000000001,0.,-139.7926));
#331=CARTESIAN_POINT('',(0.,0.,-142.));
#332=CARTESIAN_POINT('',(0.,0.,-159.7926));
#333=MECHANICAL_DESIGN_GEOMETRIC_PRESENTATION_REPRESENTATION('',(#171,#172,
#173,#174,#175,#176,#177,#178),#334);
#334=(
GEOMETRIC_REPRESENTATION_CONTEXT(3)
GLOBAL_UNCERTAINTY_ASSIGNED_CONTEXT((#335))
GLOBAL_UNIT_ASSIGNED_CONTEXT((#341,#337,#336))
REPRESENTATION_CONTEXT('3955_1_3D','TOP_LEVEL_ASSEMBLY_PART')
);
#335=UNCERTAINTY_MEASURE_WITH_UNIT(LENGTH_MEASURE(2.E-5),#341,
'DISTANCE_ACCURACY_VALUE','Maximum Tolerance applied to model');
#336=(
NAMED_UNIT(*)
SI_UNIT($,.STERADIAN.)
SOLID_ANGLE_UNIT()
);
#337=(
CONVERSION_BASED_UNIT('DEGREE',#339)
NAMED_UNIT(#338)
PLANE_ANGLE_UNIT()
);
#338=DIMENSIONAL_EXPONENTS(0.,0.,0.,0.,0.,0.,0.);
#339=PLANE_ANGLE_MEASURE_WITH_UNIT(PLANE_ANGLE_MEASURE(0.0174532925),#340);
#340=(
NAMED_UNIT(*)
PLANE_ANGLE_UNIT()
SI_UNIT($,.RADIAN.)
);
#341=(
LENGTH_UNIT()
NAMED_UNIT(*)
SI_UNIT(.MILLI.,.METRE.)
);
ENDSEC;
END-ISO-10303-21;
