ISO-10303-21;
HEADER;
/* Generated by software containing ST-Developer
 * from STEP Tools, Inc. (www.steptools.com) 
 */
/* OPTION: using custom schema-name function */

FILE_DESCRIPTION(
/* description */ (''),
/* implementation_level */ '2;1');

FILE_NAME(
/* name */ '3686_1_3D.STP',
/* time_stamp */ '2024-07-24T07:15:36+02:00',
/* author */ (''),
/* organization */ ('SMS'),
/* preprocessor_version */ 'ST-DEVELOPER v16.7',
/* originating_system */ 'SIEMENS PLM Software NX 12.0',
/* authorisation */ '');

FILE_SCHEMA (('AUTOMOTIVE_DESIGN { 1 0 10303 214 3 1 1 1 }'));
ENDSEC;

DATA;
#10=CONSTRUCTIVE_GEOMETRY_REPRESENTATION_RELATIONSHIP(
'supplemental geometry','',#26,#11);
#11=CONSTRUCTIVE_GEOMETRY_REPRESENTATION('supplemental geometry',(#206,
#207,#208),#354);
#12=GEOMETRICALLY_BOUNDED_WIREFRAME_SHAPE_REPRESENTATION(
'3686_1_3D-None',(#27),#354);
#13=SHAPE_REPRESENTATION_RELATIONSHIP('None',
'relationship between 3686_1_3D-None and 3686_1_3D-None',#26,#15);
#14=SHAPE_REPRESENTATION_RELATIONSHIP('None',
'relationship between 3686_1_3D-None and 3686_1_3D-None',#26,#12);
#15=ADVANCED_BREP_SHAPE_REPRESENTATION('3686_1_3D-None',(#41,#42),#354);
#16=SHAPE_DEFINITION_REPRESENTATION(#17,#26);
#17=PRODUCT_DEFINITION_SHAPE('','',#18);
#18=PRODUCT_DEFINITION(' ','',#20,#19);
#19=PRODUCT_DEFINITION_CONTEXT('part definition',#25,'design');
#20=PRODUCT_DEFINITION_FORMATION_WITH_SPECIFIED_SOURCE(' ',' ',#22,
 .NOT_KNOWN.);
#21=PRODUCT_RELATED_PRODUCT_CATEGORY('part','',(#22));
#22=PRODUCT('3686_1_3D','3686_1_3D',' ',(#23));
#23=PRODUCT_CONTEXT(' ',#25,'mechanical');
#24=APPLICATION_PROTOCOL_DEFINITION('international standard',
'automotive_design',2010,#25);
#25=APPLICATION_CONTEXT(
'core data for automotive mechanical design processes');
#26=SHAPE_REPRESENTATION('3686_1_3D-None',(#205),#354);
#27=GEOMETRIC_CURVE_SET('None',(#290,#291,#180));
#28=VERTEX_LOOP('',#148);
#29=SURFACE_STYLE_USAGE(.BOTH.,#31);
#30=SURFACE_STYLE_USAGE(.BOTH.,#32);
#31=SURFACE_SIDE_STYLE('',(#33));
#32=SURFACE_SIDE_STYLE('',(#34));
#33=SURFACE_STYLE_FILL_AREA(#35);
#34=SURFACE_STYLE_FILL_AREA(#36);
#35=FILL_AREA_STYLE('',(#37));
#36=FILL_AREA_STYLE('',(#38));
#37=FILL_AREA_STYLE_COLOUR('',#39);
#38=FILL_AREA_STYLE_COLOUR('',#40);
#39=COLOUR_RGB('TLS_NOCUT',0.499992370489052,0.499992370489052,0.499992370489052);
#40=COLOUR_RGB('TLS_CUT',0.8,0.8,0.8);
#41=MANIFOLD_SOLID_BREP('NOCUT',#43);
#42=MANIFOLD_SOLID_BREP('CUT',#44);
#43=CLOSED_SHELL('',(#58,#59,#60,#61,#62,#63,#64));
#44=CLOSED_SHELL('',(#65,#66,#67,#68,#69,#70));
#45=CONICAL_SURFACE('',#219,5.,45.0000000000001);
#46=CONICAL_SURFACE('',#228,3.417062,2.99999999999999);
#47=CONICAL_SURFACE('',#229,3.45,45.0000000000038);
#48=CONICAL_SURFACE('',#231,2.75335310107039E-14,73.5784558761745);
#49=CONICAL_SURFACE('',#232,3.46250000000001,0.0358098575329488);
#50=PLANE('',#217);
#51=PLANE('',#221);
#52=PLANE('',#223);
#53=FACE_OUTER_BOUND('',#100,.T.);
#54=FACE_OUTER_BOUND('',#105,.T.);
#55=FACE_OUTER_BOUND('',#106,.T.);
#56=TOROIDAL_SURFACE('',#214,4.2,0.800000000000002);
#57=TOROIDAL_SURFACE('',#215,5.45999999999806,0.799999999999998);
#58=ADVANCED_FACE('',(#74,#75),#71,.T.);
#59=ADVANCED_FACE('',(#76,#77),#56,.T.);
#60=ADVANCED_FACE('',(#78,#79),#57,.F.);
#61=ADVANCED_FACE('',(#53),#50,.T.);
#62=ADVANCED_FACE('',(#80,#81),#45,.T.);
#63=ADVANCED_FACE('SHANK',(#82,#83),#72,.T.);
#64=ADVANCED_FACE('',(#54),#51,.T.);
#65=ADVANCED_FACE('',(#55),#52,.F.);
#66=ADVANCED_FACE('',(#84,#85),#73,.T.);
#67=ADVANCED_FACE('',(#86,#87),#46,.T.);
#68=ADVANCED_FACE('',(#88,#89),#47,.T.);
#69=ADVANCED_FACE('',(#90,#91),#48,.T.);
#70=ADVANCED_FACE('',(#92,#93),#49,.T.);
#71=CYLINDRICAL_SURFACE('',#211,4.65999999999861);
#72=CYLINDRICAL_SURFACE('',#220,5.);
#73=CYLINDRICAL_SURFACE('',#225,4.65999999999861);
#74=FACE_BOUND('',#94,.T.);
#75=FACE_BOUND('',#95,.T.);
#76=FACE_BOUND('',#96,.T.);
#77=FACE_BOUND('',#97,.T.);
#78=FACE_BOUND('',#98,.T.);
#79=FACE_BOUND('',#99,.T.);
#80=FACE_BOUND('',#101,.T.);
#81=FACE_BOUND('',#102,.T.);
#82=FACE_BOUND('',#103,.T.);
#83=FACE_BOUND('',#104,.T.);
#84=FACE_BOUND('',#107,.T.);
#85=FACE_BOUND('',#108,.T.);
#86=FACE_BOUND('',#109,.T.);
#87=FACE_BOUND('',#110,.T.);
#88=FACE_BOUND('',#111,.T.);
#89=FACE_BOUND('',#112,.T.);
#90=FACE_BOUND('',#28,.T.);
#91=FACE_BOUND('',#113,.T.);
#92=FACE_BOUND('',#114,.T.);
#93=FACE_BOUND('',#115,.T.);
#94=EDGE_LOOP('',(#116));
#95=EDGE_LOOP('',(#117));
#96=EDGE_LOOP('',(#118));
#97=EDGE_LOOP('',(#119));
#98=EDGE_LOOP('',(#120));
#99=EDGE_LOOP('',(#121));
#100=EDGE_LOOP('',(#122));
#101=EDGE_LOOP('',(#123));
#102=EDGE_LOOP('',(#124));
#103=EDGE_LOOP('',(#125));
#104=EDGE_LOOP('',(#126));
#105=EDGE_LOOP('',(#127));
#106=EDGE_LOOP('',(#128));
#107=EDGE_LOOP('',(#129));
#108=EDGE_LOOP('',(#130));
#109=EDGE_LOOP('',(#131));
#110=EDGE_LOOP('',(#132));
#111=EDGE_LOOP('',(#133));
#112=EDGE_LOOP('',(#134));
#113=EDGE_LOOP('',(#135));
#114=EDGE_LOOP('',(#136));
#115=EDGE_LOOP('',(#137));
#116=ORIENTED_EDGE('',*,*,#150,.T.);
#117=ORIENTED_EDGE('',*,*,#151,.F.);
#118=ORIENTED_EDGE('',*,*,#152,.T.);
#119=ORIENTED_EDGE('',*,*,#153,.F.);
#120=ORIENTED_EDGE('',*,*,#153,.T.);
#121=ORIENTED_EDGE('',*,*,#150,.F.);
#122=ORIENTED_EDGE('',*,*,#154,.F.);
#123=ORIENTED_EDGE('',*,*,#154,.T.);
#124=ORIENTED_EDGE('',*,*,#155,.F.);
#125=ORIENTED_EDGE('',*,*,#155,.T.);
#126=ORIENTED_EDGE('',*,*,#152,.F.);
#127=ORIENTED_EDGE('',*,*,#151,.T.);
#128=ORIENTED_EDGE('',*,*,#156,.F.);
#129=ORIENTED_EDGE('',*,*,#156,.T.);
#130=ORIENTED_EDGE('',*,*,#157,.F.);
#131=ORIENTED_EDGE('',*,*,#158,.T.);
#132=ORIENTED_EDGE('',*,*,#159,.T.);
#133=ORIENTED_EDGE('',*,*,#158,.F.);
#134=ORIENTED_EDGE('',*,*,#157,.T.);
#135=ORIENTED_EDGE('',*,*,#160,.T.);
#136=ORIENTED_EDGE('',*,*,#160,.F.);
#137=ORIENTED_EDGE('',*,*,#159,.F.);
#138=VERTEX_POINT('',#318);
#139=VERTEX_POINT('',#320);
#140=VERTEX_POINT('',#323);
#141=VERTEX_POINT('',#325);
#142=VERTEX_POINT('',#329);
#143=VERTEX_POINT('',#332);
#144=VERTEX_POINT('',#337);
#145=VERTEX_POINT('',#340);
#146=VERTEX_POINT('',#343);
#147=VERTEX_POINT('',#345);
#148=VERTEX_POINT('',#348);
#149=VERTEX_POINT('',#350);
#150=EDGE_CURVE('',#138,#138,#161,.T.);
#151=EDGE_CURVE('',#139,#139,#162,.T.);
#152=EDGE_CURVE('',#140,#140,#163,.T.);
#153=EDGE_CURVE('',#141,#141,#164,.T.);
#154=EDGE_CURVE('',#142,#142,#165,.T.);
#155=EDGE_CURVE('',#143,#143,#166,.T.);
#156=EDGE_CURVE('',#144,#144,#167,.T.);
#157=EDGE_CURVE('',#145,#145,#168,.T.);
#158=EDGE_CURVE('',#146,#146,#169,.T.);
#159=EDGE_CURVE('',#147,#147,#170,.T.);
#160=EDGE_CURVE('',#149,#149,#171,.T.);
#161=CIRCLE('',#209,4.65999999999806);
#162=CIRCLE('',#210,4.65999999999861);
#163=CIRCLE('',#212,5.);
#164=CIRCLE('',#213,4.82999999999903);
#165=CIRCLE('',#216,3.66);
#166=CIRCLE('',#218,5.);
#167=CIRCLE('',#222,4.65999999999861);
#168=CIRCLE('',#224,4.65999999999861);
#169=CIRCLE('',#226,3.417062);
#170=CIRCLE('',#227,3.43732473374516);
#171=CIRCLE('',#230,3.45);
#172=CURVE_STYLE('',#176,POSITIVE_LENGTH_MEASURE(0.18),#202);
#173=CURVE_STYLE('',#177,POSITIVE_LENGTH_MEASURE(0.13),#204);
#174=CURVE_STYLE('',#178,POSITIVE_LENGTH_MEASURE(0.13),#204);
#175=CURVE_STYLE('',#179,POSITIVE_LENGTH_MEASURE(0.13),#204);
#176=DRAUGHTING_PRE_DEFINED_CURVE_FONT('continuous');
#177=DRAUGHTING_PRE_DEFINED_CURVE_FONT('continuous');
#178=DRAUGHTING_PRE_DEFINED_CURVE_FONT('continuous');
#179=DRAUGHTING_PRE_DEFINED_CURVE_FONT('continuous');
#180=B_SPLINE_CURVE_WITH_KNOTS('CUTTING PART LINE',3,(#292,#293,#294,#295,
#296,#297,#298,#299,#300,#301,#302,#303,#304,#305,#306,#307,#308,#309,#310,
#311,#312,#313),.UNSPECIFIED.,.T.,.F.,(4,3,3,3,3,3,3,4),(0.,0.427676471288288,
0.514591968724086,0.514651653185874,0.547436696894879,0.554657893636137,
0.932916189552343,1.),.UNSPECIFIED.);
#181=PRESENTATION_LAYER_ASSIGNMENT('1','Layer 1',(#290,#291,#180,#206,#207,
#208,#41,#42));
#182=STYLED_ITEM('',(#190),#290);
#183=STYLED_ITEM('',(#191),#291);
#184=STYLED_ITEM('',(#192),#180);
#185=STYLED_ITEM('',(#193),#206);
#186=STYLED_ITEM('',(#194),#207);
#187=STYLED_ITEM('',(#195),#208);
#188=STYLED_ITEM('',(#196),#41);
#189=STYLED_ITEM('',(#197),#42);
#190=PRESENTATION_STYLE_ASSIGNMENT((#198));
#191=PRESENTATION_STYLE_ASSIGNMENT((#199));
#192=PRESENTATION_STYLE_ASSIGNMENT((#172));
#193=PRESENTATION_STYLE_ASSIGNMENT((#173));
#194=PRESENTATION_STYLE_ASSIGNMENT((#174));
#195=PRESENTATION_STYLE_ASSIGNMENT((#175));
#196=PRESENTATION_STYLE_ASSIGNMENT((#29));
#197=PRESENTATION_STYLE_ASSIGNMENT((#30));
#198=POINT_STYLE('',#200,POSITIVE_LENGTH_MEASURE(3.),#202);
#199=POINT_STYLE('',#201,POSITIVE_LENGTH_MEASURE(3.),#203);
#200=PRE_DEFINED_POINT_MARKER_SYMBOL('plus');
#201=PRE_DEFINED_POINT_MARKER_SYMBOL('plus');
#202=DRAUGHTING_PRE_DEFINED_COLOUR('blue');
#203=DRAUGHTING_PRE_DEFINED_COLOUR('white');
#204=DRAUGHTING_PRE_DEFINED_COLOUR('green');
#205=AXIS2_PLACEMENT_3D('',#289,#233,#234);
#206=AXIS2_PLACEMENT_3D('PCS',#314,#235,#236);
#207=AXIS2_PLACEMENT_3D('MCS',#315,#237,#238);
#208=AXIS2_PLACEMENT_3D('CIP',#316,#239,#240);
#209=AXIS2_PLACEMENT_3D('',#317,#241,#242);
#210=AXIS2_PLACEMENT_3D('',#319,#243,#244);
#211=AXIS2_PLACEMENT_3D('',#321,#245,#246);
#212=AXIS2_PLACEMENT_3D('',#322,#247,#248);
#213=AXIS2_PLACEMENT_3D('',#324,#249,#250);
#214=AXIS2_PLACEMENT_3D('',#326,#251,#252);
#215=AXIS2_PLACEMENT_3D('',#327,#253,#254);
#216=AXIS2_PLACEMENT_3D('',#328,#255,#256);
#217=AXIS2_PLACEMENT_3D('',#330,#257,#258);
#218=AXIS2_PLACEMENT_3D('',#331,#259,#260);
#219=AXIS2_PLACEMENT_3D('',#333,#261,#262);
#220=AXIS2_PLACEMENT_3D('',#334,#263,#264);
#221=AXIS2_PLACEMENT_3D('',#335,#265,#266);
#222=AXIS2_PLACEMENT_3D('',#336,#267,#268);
#223=AXIS2_PLACEMENT_3D('',#338,#269,#270);
#224=AXIS2_PLACEMENT_3D('',#339,#271,#272);
#225=AXIS2_PLACEMENT_3D('',#341,#273,#274);
#226=AXIS2_PLACEMENT_3D('',#342,#275,#276);
#227=AXIS2_PLACEMENT_3D('',#344,#277,#278);
#228=AXIS2_PLACEMENT_3D('',#346,#279,#280);
#229=AXIS2_PLACEMENT_3D('',#347,#281,#282);
#230=AXIS2_PLACEMENT_3D('',#349,#283,#284);
#231=AXIS2_PLACEMENT_3D('',#351,#285,#286);
#232=AXIS2_PLACEMENT_3D('',#352,#287,#288);
#233=DIRECTION('',(0.,0.,1.));
#234=DIRECTION('',(1.,0.,0.));
#235=DIRECTION('',(0.,0.,1.));
#236=DIRECTION('',(1.,0.,0.));
#237=DIRECTION('',(0.,0.,1.));
#238=DIRECTION('',(1.,0.,0.));
#239=DIRECTION('',(0.,0.,1.));
#240=DIRECTION('',(1.,0.,0.));
#241=DIRECTION('',(0.,0.,-1.));
#242=DIRECTION('',(1.,0.,0.));
#243=DIRECTION('',(0.,0.,-1.));
#244=DIRECTION('',(1.,0.,0.));
#245=DIRECTION('',(0.,0.,1.));
#246=DIRECTION('',(-1.,0.,0.));
#247=DIRECTION('',(0.,0.,-1.));
#248=DIRECTION('',(1.,0.,0.));
#249=DIRECTION('',(0.,0.,-1.));
#250=DIRECTION('',(1.,0.,0.));
#251=DIRECTION('',(0.,0.,-1.));
#252=DIRECTION('',(1.,0.,0.));
#253=DIRECTION('',(0.,0.,-1.));
#254=DIRECTION('',(1.,0.,0.));
#255=DIRECTION('',(0.,0.,-1.));
#256=DIRECTION('',(1.,0.,0.));
#257=DIRECTION('',(0.,0.,1.));
#258=DIRECTION('',(-1.,0.,0.));
#259=DIRECTION('',(0.,0.,-1.));
#260=DIRECTION('',(1.,0.,0.));
#261=DIRECTION('',(0.,0.,-1.));
#262=DIRECTION('',(1.,0.,1.00113394633487E-16));
#263=DIRECTION('',(0.,0.,-1.));
#264=DIRECTION('',(1.,0.,0.));
#265=DIRECTION('',(0.,0.,-1.));
#266=DIRECTION('',(1.,0.,0.));
#267=DIRECTION('',(0.,0.,-1.));
#268=DIRECTION('',(1.,0.,0.));
#269=DIRECTION('',(0.,0.,-1.));
#270=DIRECTION('',(1.,0.,0.));
#271=DIRECTION('',(0.,0.,-1.));
#272=DIRECTION('',(-1.,0.,0.));
#273=DIRECTION('',(0.,0.,1.));
#274=DIRECTION('',(-1.,0.,0.));
#275=DIRECTION('',(0.,0.,-1.));
#276=DIRECTION('',(-1.,0.,0.));
#277=DIRECTION('',(0.,0.,1.));
#278=DIRECTION('',(1.,0.,0.));
#279=DIRECTION('',(0.,0.,-1.));
#280=DIRECTION('',(1.,0.,-2.48595204014138E-16));
#281=DIRECTION('',(0.,0.,1.));
#282=DIRECTION('',(-1.,0.,2.76601481046642E-17));
#283=DIRECTION('',(0.,0.,-1.));
#284=DIRECTION('',(-1.,0.,0.));
#285=DIRECTION('',(0.,0.,1.));
#286=DIRECTION('',(-1.,0.,8.18025196694817E-18));
#287=DIRECTION('',(0.,0.,-1.));
#288=DIRECTION('',(1.,0.,-1.018553233601E-14));
#289=CARTESIAN_POINT('',(0.,0.,0.));
#290=CARTESIAN_POINT('CRP',(3.45,0.,-87.9832));
#291=CARTESIAN_POINT('',(0.,0.,-89.));
#292=CARTESIAN_POINT('',(0.,0.,-89.));
#293=CARTESIAN_POINT('',(0.,0.,-81.3566666666667));
#294=CARTESIAN_POINT('',(0.,0.,-73.7133333333333));
#295=CARTESIAN_POINT('',(0.,0.,-66.07));
#296=CARTESIAN_POINT('',(1.55333333333287,0.,-66.07));
#297=CARTESIAN_POINT('',(3.10666666666574,0.,-66.07));
#298=CARTESIAN_POINT('',(4.65999999999861,0.,-66.07));
#299=CARTESIAN_POINT('',(4.65999999999861,0.,-66.0710666666672));
#300=CARTESIAN_POINT('',(4.65999999999861,0.,-66.0721333333344));
#301=CARTESIAN_POINT('',(4.65999999999861,0.,-66.0732000000016));
#302=CARTESIAN_POINT('',(4.24568733333241,0.,-66.4875126666677));
#303=CARTESIAN_POINT('',(3.83137466666621,0.,-66.9018253333338));
#304=CARTESIAN_POINT('',(3.41706200000002,0.,-67.316138));
#305=CARTESIAN_POINT('',(3.42381624458172,0.,-67.4450166640861));
#306=CARTESIAN_POINT('',(3.43057048916344,0.,-67.5738953281723));
#307=CARTESIAN_POINT('',(3.43732473374516,0.,-67.7027739922584));
#308=CARTESIAN_POINT('',(3.44154982249677,0.,-74.4629159948396));
#309=CARTESIAN_POINT('',(3.44577491124839,0.,-81.2230579974207));
#310=CARTESIAN_POINT('',(3.45,0.,-87.9832000000018));
#311=CARTESIAN_POINT('',(2.29999999999795,0.,-88.322133333334));
#312=CARTESIAN_POINT('',(1.14999999999897,0.,-88.661066666667));
#313=CARTESIAN_POINT('',(0.,0.,-89.));
#314=CARTESIAN_POINT('',(0.,0.,0.));
#315=CARTESIAN_POINT('',(0.,0.,-40.));
#316=CARTESIAN_POINT('',(0.,0.,-89.));
#317=CARTESIAN_POINT('',(0.,0.,-40.9861034428522));
#318=CARTESIAN_POINT('',(4.65999999999806,0.,-40.9861034428522));
#319=CARTESIAN_POINT('',(0.,0.,-66.07));
#320=CARTESIAN_POINT('',(4.65999999999861,0.,-66.07));
#321=CARTESIAN_POINT('',(0.,0.,18.5639167741778));
#322=CARTESIAN_POINT('',(0.,0.,-40.));
#323=CARTESIAN_POINT('',(5.,0.,-40.));
#324=CARTESIAN_POINT('',(0.,0.,-40.4930517214261));
#325=CARTESIAN_POINT('',(4.82999999999903,0.,-40.4930517214261));
#326=CARTESIAN_POINT('',(0.,0.,-40.));
#327=CARTESIAN_POINT('',(0.,0.,-40.9861034428522));
#328=CARTESIAN_POINT('',(0.,0.,0.));
#329=CARTESIAN_POINT('',(3.66,0.,0.));
#330=CARTESIAN_POINT('',(3.66,0.,1.11022302462516E-16));
#331=CARTESIAN_POINT('',(0.,0.,-1.34));
#332=CARTESIAN_POINT('',(5.,0.,-1.34));
#333=CARTESIAN_POINT('',(0.,0.,-1.34));
#334=CARTESIAN_POINT('',(0.,0.,18.5639167741778));
#335=CARTESIAN_POINT('',(0.,0.,-66.07));
#336=CARTESIAN_POINT('',(0.,0.,-66.07));
#337=CARTESIAN_POINT('',(4.65999999999861,0.,-66.07));
#338=CARTESIAN_POINT('',(0.,0.,-66.07));
#339=CARTESIAN_POINT('',(0.,0.,-66.0732000000016));
#340=CARTESIAN_POINT('',(-4.65999999999861,0.,-66.0732000000016));
#341=CARTESIAN_POINT('',(0.,0.,18.5639167741778));
#342=CARTESIAN_POINT('',(0.,0.,-67.316138));
#343=CARTESIAN_POINT('',(-3.417062,0.,-67.316138));
#344=CARTESIAN_POINT('',(0.,0.,-67.7027739922584));
#345=CARTESIAN_POINT('',(3.43732473374516,0.,-67.7027739922584));
#346=CARTESIAN_POINT('',(0.,0.,-67.316138));
#347=CARTESIAN_POINT('',(0.,0.,-67.2832));
#348=CARTESIAN_POINT('',(-2.75335310107039E-14,0.,-89.));
#349=CARTESIAN_POINT('',(0.,0.,-87.9832000000009));
#350=CARTESIAN_POINT('',(-3.45,0.,-87.9832000000009));
#351=CARTESIAN_POINT('',(0.,0.,-89.));
#352=CARTESIAN_POINT('',(0.,0.,-107.9832));
#353=MECHANICAL_DESIGN_GEOMETRIC_PRESENTATION_REPRESENTATION('',(#182,#183,
#184,#185,#186,#187,#188,#189),#354);
#354=(
GEOMETRIC_REPRESENTATION_CONTEXT(3)
GLOBAL_UNCERTAINTY_ASSIGNED_CONTEXT((#355))
GLOBAL_UNIT_ASSIGNED_CONTEXT((#361,#357,#356))
REPRESENTATION_CONTEXT('3686_1_3D','TOP_LEVEL_ASSEMBLY_PART')
);
#355=UNCERTAINTY_MEASURE_WITH_UNIT(LENGTH_MEASURE(2.E-5),#361,
'DISTANCE_ACCURACY_VALUE','Maximum Tolerance applied to model');
#356=(
NAMED_UNIT(*)
SI_UNIT($,.STERADIAN.)
SOLID_ANGLE_UNIT()
);
#357=(
CONVERSION_BASED_UNIT('DEGREE',#359)
NAMED_UNIT(#358)
PLANE_ANGLE_UNIT()
);
#358=DIMENSIONAL_EXPONENTS(0.,0.,0.,0.,0.,0.,0.);
#359=PLANE_ANGLE_MEASURE_WITH_UNIT(PLANE_ANGLE_MEASURE(0.0174532925),#360);
#360=(
NAMED_UNIT(*)
PLANE_ANGLE_UNIT()
SI_UNIT($,.RADIAN.)
);
#361=(
LENGTH_UNIT()
NAMED_UNIT(*)
SI_UNIT(.MILLI.,.METRE.)
);
ENDSEC;
END-ISO-10303-21;
