ISO-10303-21;
HEADER;
/* Generated by software containing ST-Developer
 * from STEP Tools, Inc. (www.steptools.com) 
 */
/* OPTION: using custom schema-name function */

FILE_DESCRIPTION(
/* description */ (''),
/* implementation_level */ '2;1');

FILE_NAME(
/* name */ 'TOOL.STP',
/* time_stamp */ '2024-08-27T12:54:39+02:00',
/* author */ (''),
/* organization */ ('SMS'),
/* preprocessor_version */ 'ST-DEVELOPER v16.7',
/* originating_system */ 'SIEMENS PLM Software NX 12.0',
/* authorisation */ '');

FILE_SCHEMA (('AUTOMOTIVE_DESIGN { 1 0 10303 214 3 1 1 1 }'));
ENDSEC;

DATA;
#10=CONSTRUCTIVE_GEOMETRY_REPRESENTATION_RELATIONSHIP(
'supplemental geometry','',#26,#11);
#11=CONSTRUCTIVE_GEOMETRY_REPRESENTATION('supplemental geometry',(#190,
#191,#192),#315);
#12=GEOMETRICALLY_BOUNDED_WIREFRAME_SHAPE_REPRESENTATION('Tool-None',(#27),
#315);
#13=SHAPE_REPRESENTATION_RELATIONSHIP('None',
'relationship between Tool-None and Tool-None',#26,#15);
#14=SHAPE_REPRESENTATION_RELATIONSHIP('None',
'relationship between Tool-None and Tool-None',#26,#12);
#15=ADVANCED_BREP_SHAPE_REPRESENTATION('Tool-None',(#40,#41),#315);
#16=SHAPE_DEFINITION_REPRESENTATION(#17,#26);
#17=PRODUCT_DEFINITION_SHAPE('','',#18);
#18=PRODUCT_DEFINITION(' ','',#20,#19);
#19=PRODUCT_DEFINITION_CONTEXT('part definition',#25,'design');
#20=PRODUCT_DEFINITION_FORMATION_WITH_SPECIFIED_SOURCE(' ',' ',#22,
 .NOT_KNOWN.);
#21=PRODUCT_RELATED_PRODUCT_CATEGORY('part','',(#22));
#22=PRODUCT('Tool','Tool',' ',(#23));
#23=PRODUCT_CONTEXT(' ',#25,'mechanical');
#24=APPLICATION_PROTOCOL_DEFINITION('international standard',
'automotive_design',2010,#25);
#25=APPLICATION_CONTEXT(
'core data for automotive mechanical design processes');
#26=SHAPE_REPRESENTATION('Tool-None',(#189),#315);
#27=GEOMETRIC_CURVE_SET('None',(#262,#263,#264,#156));
#28=SPHERICAL_SURFACE('',#212,4.76249999999999);
#29=VERTEX_LOOP('',#129);
#30=SURFACE_STYLE_USAGE(.BOTH.,#32);
#31=SURFACE_STYLE_USAGE(.BOTH.,#33);
#32=SURFACE_SIDE_STYLE('',(#34));
#33=SURFACE_SIDE_STYLE('',(#35));
#34=SURFACE_STYLE_FILL_AREA(#36);
#35=SURFACE_STYLE_FILL_AREA(#37);
#36=FILL_AREA_STYLE('',(#38));
#37=FILL_AREA_STYLE('',(#39));
#38=FILL_AREA_STYLE_COLOUR('',#187);
#39=FILL_AREA_STYLE_COLOUR('',#188);
#40=MANIFOLD_SOLID_BREP('NOCUT',#42);
#41=MANIFOLD_SOLID_BREP('CUT',#43);
#42=CLOSED_SHELL('',(#54,#55,#56,#57,#58,#59,#60,#61,#62));
#43=CLOSED_SHELL('',(#63,#64));
#44=PLANE('',#201);
#45=PLANE('',#206);
#46=PLANE('',#209);
#47=PLANE('',#211);
#48=FACE_OUTER_BOUND('',#90,.T.);
#49=FACE_OUTER_BOUND('',#99,.T.);
#50=FACE_OUTER_BOUND('',#100,.T.);
#51=TOROIDAL_SURFACE('',#199,4.90150000000001,1.);
#52=CONICAL_SURFACE('',#198,3.9015,2.79905238437398);
#53=CONICAL_SURFACE('',#204,7.1375,45.0000000000001);
#54=ADVANCED_FACE('',(#68,#69),#65,.T.);
#55=ADVANCED_FACE('',(#70,#71),#52,.T.);
#56=ADVANCED_FACE('',(#72,#73),#51,.F.);
#57=ADVANCED_FACE('',(#48),#44,.F.);
#58=ADVANCED_FACE('',(#74,#75),#66,.T.);
#59=ADVANCED_FACE('',(#76,#77),#53,.T.);
#60=ADVANCED_FACE('',(#78,#79),#45,.F.);
#61=ADVANCED_FACE('',(#80,#81),#67,.T.);
#62=ADVANCED_FACE('',(#49),#46,.T.);
#63=ADVANCED_FACE('',(#50),#47,.T.);
#64=ADVANCED_FACE('',(#82,#83),#28,.T.);
#65=CYLINDRICAL_SURFACE('',#195,3.90150000000001);
#66=CYLINDRICAL_SURFACE('',#203,7.9375);
#67=CYLINDRICAL_SURFACE('',#208,3.89992102484137);
#68=FACE_BOUND('',#84,.T.);
#69=FACE_BOUND('',#85,.T.);
#70=FACE_BOUND('',#86,.T.);
#71=FACE_BOUND('',#87,.T.);
#72=FACE_BOUND('',#88,.T.);
#73=FACE_BOUND('',#89,.T.);
#74=FACE_BOUND('',#91,.T.);
#75=FACE_BOUND('',#92,.T.);
#76=FACE_BOUND('',#93,.T.);
#77=FACE_BOUND('',#94,.T.);
#78=FACE_BOUND('',#95,.T.);
#79=FACE_BOUND('',#96,.T.);
#80=FACE_BOUND('',#97,.T.);
#81=FACE_BOUND('',#98,.T.);
#82=FACE_BOUND('',#29,.T.);
#83=FACE_BOUND('',#101,.T.);
#84=EDGE_LOOP('',(#102));
#85=EDGE_LOOP('',(#103));
#86=EDGE_LOOP('',(#104));
#87=EDGE_LOOP('',(#105));
#88=EDGE_LOOP('',(#106));
#89=EDGE_LOOP('',(#107));
#90=EDGE_LOOP('',(#108));
#91=EDGE_LOOP('',(#109));
#92=EDGE_LOOP('',(#110));
#93=EDGE_LOOP('',(#111));
#94=EDGE_LOOP('',(#112));
#95=EDGE_LOOP('',(#113));
#96=EDGE_LOOP('',(#114));
#97=EDGE_LOOP('',(#115));
#98=EDGE_LOOP('',(#116));
#99=EDGE_LOOP('',(#117));
#100=EDGE_LOOP('',(#118));
#101=EDGE_LOOP('',(#119));
#102=ORIENTED_EDGE('',*,*,#130,.T.);
#103=ORIENTED_EDGE('',*,*,#131,.F.);
#104=ORIENTED_EDGE('',*,*,#132,.T.);
#105=ORIENTED_EDGE('',*,*,#133,.F.);
#106=ORIENTED_EDGE('',*,*,#130,.F.);
#107=ORIENTED_EDGE('',*,*,#132,.F.);
#108=ORIENTED_EDGE('',*,*,#134,.T.);
#109=ORIENTED_EDGE('',*,*,#135,.T.);
#110=ORIENTED_EDGE('',*,*,#133,.T.);
#111=ORIENTED_EDGE('',*,*,#135,.F.);
#112=ORIENTED_EDGE('',*,*,#134,.F.);
#113=ORIENTED_EDGE('',*,*,#136,.F.);
#114=ORIENTED_EDGE('',*,*,#131,.T.);
#115=ORIENTED_EDGE('',*,*,#137,.F.);
#116=ORIENTED_EDGE('',*,*,#136,.T.);
#117=ORIENTED_EDGE('',*,*,#137,.T.);
#118=ORIENTED_EDGE('',*,*,#138,.T.);
#119=ORIENTED_EDGE('',*,*,#138,.F.);
#120=VERTEX_POINT('',#285);
#121=VERTEX_POINT('',#287);
#122=VERTEX_POINT('',#290);
#123=VERTEX_POINT('',#292);
#124=VERTEX_POINT('',#296);
#125=VERTEX_POINT('',#299);
#126=VERTEX_POINT('',#303);
#127=VERTEX_POINT('',#306);
#128=VERTEX_POINT('',#310);
#129=VERTEX_POINT('',#312);
#130=EDGE_CURVE('',#120,#120,#139,.T.);
#131=EDGE_CURVE('',#121,#121,#140,.T.);
#132=EDGE_CURVE('',#122,#122,#141,.T.);
#133=EDGE_CURVE('',#123,#123,#142,.T.);
#134=EDGE_CURVE('',#124,#124,#143,.T.);
#135=EDGE_CURVE('',#125,#125,#144,.T.);
#136=EDGE_CURVE('',#126,#126,#145,.T.);
#137=EDGE_CURVE('',#127,#127,#146,.T.);
#138=EDGE_CURVE('',#128,#128,#147,.T.);
#139=CIRCLE('',#193,3.90150000000001);
#140=CIRCLE('',#194,3.90150000000001);
#141=CIRCLE('',#196,3.90269305486822);
#142=CIRCLE('',#197,7.9375);
#143=CIRCLE('',#200,7.1375);
#144=CIRCLE('',#202,7.9375);
#145=CIRCLE('',#205,3.89992102484137);
#146=CIRCLE('',#207,3.89992102484137);
#147=CIRCLE('',#210,3.89992102484137);
#148=CURVE_STYLE('',#152,POSITIVE_LENGTH_MEASURE(0.18),#159);
#149=CURVE_STYLE('',#153,POSITIVE_LENGTH_MEASURE(0.13),#186);
#150=CURVE_STYLE('',#154,POSITIVE_LENGTH_MEASURE(0.18),#185);
#151=CURVE_STYLE('',#155,POSITIVE_LENGTH_MEASURE(0.18),#185);
#152=DRAUGHTING_PRE_DEFINED_CURVE_FONT('continuous');
#153=DRAUGHTING_PRE_DEFINED_CURVE_FONT('continuous');
#154=DRAUGHTING_PRE_DEFINED_CURVE_FONT('continuous');
#155=DRAUGHTING_PRE_DEFINED_CURVE_FONT('continuous');
#156=TRIMMED_CURVE('CUTTING PART LINE',#157,(PARAMETER_VALUE(0.)),(
PARAMETER_VALUE(1.)),.T.,.PARAMETER.);
#157=(
BOUNDED_CURVE()
B_SPLINE_CURVE(4,(#265,#266,#267,#268,#269,#270,#271,#272,#273,#274,#275,
#276,#277,#278,#279,#280),.UNSPECIFIED.,.T.,.F.)
B_SPLINE_CURVE_WITH_KNOTS((5,4,4,3,5),(0.,0.344037325618767,0.523028574217566,
0.761514287108783,1.),.UNSPECIFIED.)
CURVE()
GEOMETRIC_REPRESENTATION_ITEM()
RATIONAL_B_SPLINE_CURVE((0.539126975523522,0.539126975523522,0.539126975523522,
0.539126975523522,0.539126975523522,0.539126975523522,0.539126975523522,
0.539126975523522,0.539126975523522,0.539126975523522,0.531554633406866,
0.539126975523522,0.539126975523522,0.531554633406866,0.539126975523522,
0.539126975523522))
REPRESENTATION_ITEM('CUTTING PART LINE')
);
#158=DRAUGHTING_PRE_DEFINED_COLOUR('white');
#159=DRAUGHTING_PRE_DEFINED_COLOUR('blue');
#160=PRESENTATION_LAYER_ASSIGNMENT('1','Layer 1',(#262,#263,#264,#156,#190,
#191,#192,#40,#41));
#161=STYLED_ITEM('',(#170),#262);
#162=STYLED_ITEM('',(#171),#263);
#163=STYLED_ITEM('',(#172),#264);
#164=STYLED_ITEM('',(#173),#156);
#165=STYLED_ITEM('',(#174),#190);
#166=STYLED_ITEM('',(#175),#191);
#167=STYLED_ITEM('',(#176),#192);
#168=STYLED_ITEM('',(#177),#40);
#169=STYLED_ITEM('',(#178),#41);
#170=PRESENTATION_STYLE_ASSIGNMENT((#179));
#171=PRESENTATION_STYLE_ASSIGNMENT((#180));
#172=PRESENTATION_STYLE_ASSIGNMENT((#181));
#173=PRESENTATION_STYLE_ASSIGNMENT((#148));
#174=PRESENTATION_STYLE_ASSIGNMENT((#149));
#175=PRESENTATION_STYLE_ASSIGNMENT((#150));
#176=PRESENTATION_STYLE_ASSIGNMENT((#151));
#177=PRESENTATION_STYLE_ASSIGNMENT((#30));
#178=PRESENTATION_STYLE_ASSIGNMENT((#31));
#179=POINT_STYLE('',#182,POSITIVE_LENGTH_MEASURE(3.),#185);
#180=POINT_STYLE('',#183,POSITIVE_LENGTH_MEASURE(3.),#158);
#181=POINT_STYLE('',#184,POSITIVE_LENGTH_MEASURE(3.),#185);
#182=PRE_DEFINED_POINT_MARKER_SYMBOL('plus');
#183=PRE_DEFINED_POINT_MARKER_SYMBOL('plus');
#184=PRE_DEFINED_POINT_MARKER_SYMBOL('plus');
#185=COLOUR_RGB('Medium Maroon',0.6,0.4,0.4);
#186=COLOUR_RGB('Silver Gray',0.6,0.6,0.6);
#187=COLOUR_RGB('TLS_NOCUT',0.498023956664378,0.498023956664378,0.498023956664378);
#188=COLOUR_RGB('TLS_CUT',0.8,0.8,0.8);
#189=AXIS2_PLACEMENT_3D('',#261,#213,#214);
#190=AXIS2_PLACEMENT_3D('PCS',#281,#215,#216);
#191=AXIS2_PLACEMENT_3D('MCS',#282,#217,#218);
#192=AXIS2_PLACEMENT_3D('CIP',#283,#219,#220);
#193=AXIS2_PLACEMENT_3D('',#284,#221,#222);
#194=AXIS2_PLACEMENT_3D('',#286,#223,#224);
#195=AXIS2_PLACEMENT_3D('',#288,#225,#226);
#196=AXIS2_PLACEMENT_3D('',#289,#227,#228);
#197=AXIS2_PLACEMENT_3D('',#291,#229,#230);
#198=AXIS2_PLACEMENT_3D('',#293,#231,#232);
#199=AXIS2_PLACEMENT_3D('',#294,#233,#234);
#200=AXIS2_PLACEMENT_3D('',#295,#235,#236);
#201=AXIS2_PLACEMENT_3D('',#297,#237,#238);
#202=AXIS2_PLACEMENT_3D('',#298,#239,#240);
#203=AXIS2_PLACEMENT_3D('',#300,#241,#242);
#204=AXIS2_PLACEMENT_3D('',#301,#243,#244);
#205=AXIS2_PLACEMENT_3D('',#302,#245,#246);
#206=AXIS2_PLACEMENT_3D('',#304,#247,#248);
#207=AXIS2_PLACEMENT_3D('',#305,#249,#250);
#208=AXIS2_PLACEMENT_3D('',#307,#251,#252);
#209=AXIS2_PLACEMENT_3D('',#308,#253,#254);
#210=AXIS2_PLACEMENT_3D('',#309,#255,#256);
#211=AXIS2_PLACEMENT_3D('',#311,#257,#258);
#212=AXIS2_PLACEMENT_3D('',#313,#259,#260);
#213=DIRECTION('',(0.,0.,1.));
#214=DIRECTION('',(1.,0.,0.));
#215=DIRECTION('',(0.,0.,1.));
#216=DIRECTION('',(1.,0.,0.));
#217=DIRECTION('',(0.,0.,1.));
#218=DIRECTION('',(1.,0.,0.));
#219=DIRECTION('',(0.,0.,1.));
#220=DIRECTION('',(1.,0.,0.));
#221=DIRECTION('',(0.,0.,-1.));
#222=DIRECTION('',(1.,0.,0.));
#223=DIRECTION('',(0.,0.,-1.));
#224=DIRECTION('',(1.,0.,0.));
#225=DIRECTION('',(0.,0.,1.));
#226=DIRECTION('',(1.,0.,0.));
#227=DIRECTION('',(0.,0.,1.));
#228=DIRECTION('',(1.,0.,0.));
#229=DIRECTION('',(0.,0.,1.));
#230=DIRECTION('',(1.,0.,0.));
#231=DIRECTION('',(0.,0.,1.));
#232=DIRECTION('',(1.,0.,0.));
#233=DIRECTION('',(0.,0.,1.));
#234=DIRECTION('',(1.,0.,0.));
#235=DIRECTION('',(0.,0.,1.));
#236=DIRECTION('',(-1.,0.,0.));
#237=DIRECTION('',(0.,0.,-1.));
#238=DIRECTION('',(-1.,0.,0.));
#239=DIRECTION('',(0.,0.,-1.));
#240=DIRECTION('',(-1.,0.,0.));
#241=DIRECTION('',(0.,0.,1.));
#242=DIRECTION('',(1.,0.,0.));
#243=DIRECTION('',(0.,0.,-1.));
#244=DIRECTION('',(-1.,0.,0.));
#245=DIRECTION('',(0.,0.,-1.));
#246=DIRECTION('',(-1.,0.,0.));
#247=DIRECTION('',(0.,0.,1.));
#248=DIRECTION('',(1.,0.,0.));
#249=DIRECTION('',(0.,0.,-1.));
#250=DIRECTION('',(-1.,0.,0.));
#251=DIRECTION('',(0.,0.,-1.));
#252=DIRECTION('',(-1.,0.,0.));
#253=DIRECTION('',(0.,0.,-1.));
#254=DIRECTION('',(-1.,0.,0.));
#255=DIRECTION('',(0.,0.,1.));
#256=DIRECTION('',(-1.,0.,0.));
#257=DIRECTION('',(0.,0.,1.));
#258=DIRECTION('',(1.,0.,0.));
#259=DIRECTION('',(0.,-6.12323399573676E-17,-0.999999999999997));
#260=DIRECTION('',(0.,-1.,0.));
#261=CARTESIAN_POINT('',(0.,0.,0.));
#262=CARTESIAN_POINT('',(0.,0.,-48.4));
#263=CARTESIAN_POINT('CRP',(-4.7625,0.,-158.75));
#264=CARTESIAN_POINT('CIP_DCSYS',(0.,0.,-158.75));
#265=CARTESIAN_POINT('',(0.,0.,-158.75));
#266=CARTESIAN_POINT('',(0.,0.,-156.876));
#267=CARTESIAN_POINT('',(0.,0.,-155.002));
#268=CARTESIAN_POINT('',(0.,0.,-153.128));
#269=CARTESIAN_POINT('',(0.,0.,-151.254));
#270=CARTESIAN_POINT('',(-0.974980256210342,0.,-151.254));
#271=CARTESIAN_POINT('',(-1.94996051242068,0.,-151.254));
#272=CARTESIAN_POINT('',(-2.92494076863103,0.,-151.254));
#273=CARTESIAN_POINT('',(-3.89992102484136,0.,-151.254));
#274=CARTESIAN_POINT('',(-4.6090923341472,0.,-152.265784195857));
#275=CARTESIAN_POINT('',(-5.05309195865794,0.,-153.654505207597));
#276=CARTESIAN_POINT('',(-4.79517181420676,0.,-155.089482180966));
#277=CARTESIAN_POINT('',(-3.65464475184958,0.,-157.28167807544));
#278=CARTESIAN_POINT('',(-2.62760597940918,0.,-158.316508049357));
#279=CARTESIAN_POINT('',(-1.23556918257509,0.,-158.75));
#280=CARTESIAN_POINT('',(5.83238038093926E-16,0.,-158.75));
#281=CARTESIAN_POINT('',(0.,0.,0.));
#282=CARTESIAN_POINT('',(0.,0.,-48.4));
#283=CARTESIAN_POINT('',(0.,0.,-158.75));
#284=CARTESIAN_POINT('',(0.,0.,-133.349214510994));
#285=CARTESIAN_POINT('',(3.90150000000001,0.,-133.349214510994));
#286=CARTESIAN_POINT('',(0.,0.,-133.35));
#287=CARTESIAN_POINT('',(3.90150000000001,0.,-133.35));
#288=CARTESIAN_POINT('',(0.,0.,0.));
#289=CARTESIAN_POINT('',(0.,0.,-133.300381260472));
#290=CARTESIAN_POINT('',(3.90269305486822,0.,-133.300381260472));
#291=CARTESIAN_POINT('',(0.,0.,-50.7747833118523));
#292=CARTESIAN_POINT('',(7.9375,0.,-50.7747833118523));
#293=CARTESIAN_POINT('',(0.,0.,-133.324783311852));
#294=CARTESIAN_POINT('',(0.,0.,-133.349214510994));
#295=CARTESIAN_POINT('',(0.,0.,0.));
#296=CARTESIAN_POINT('',(-7.1375,0.,0.));
#297=CARTESIAN_POINT('',(0.,7.93750000000001,0.));
#298=CARTESIAN_POINT('',(0.,0.,-0.799999999999999));
#299=CARTESIAN_POINT('',(-7.9375,0.,-0.799999999999999));
#300=CARTESIAN_POINT('',(0.,0.,20.9080749503476));
#301=CARTESIAN_POINT('',(0.,0.,0.));
#302=CARTESIAN_POINT('',(0.,0.,-133.35));
#303=CARTESIAN_POINT('',(-3.89992102484137,0.,-133.35));
#304=CARTESIAN_POINT('',(0.,0.,-133.35));
#305=CARTESIAN_POINT('',(0.,0.,-151.254));
#306=CARTESIAN_POINT('',(-3.89992102484137,0.,-151.254));
#307=CARTESIAN_POINT('',(0.,0.,-153.9875));
#308=CARTESIAN_POINT('',(0.,0.,-151.254));
#309=CARTESIAN_POINT('',(0.,0.,-151.254));
#310=CARTESIAN_POINT('',(-3.89992102484137,0.,-151.254));
#311=CARTESIAN_POINT('',(0.,0.,-151.254));
#312=CARTESIAN_POINT('',(0.,-6.43929354282591E-15,-158.75));
#313=CARTESIAN_POINT('',(0.,-6.43929354282591E-15,-153.9875));
#314=MECHANICAL_DESIGN_GEOMETRIC_PRESENTATION_REPRESENTATION('',(#161,#162,
#163,#164,#165,#166,#167,#168,#169),#315);
#315=(
GEOMETRIC_REPRESENTATION_CONTEXT(3)
GLOBAL_UNCERTAINTY_ASSIGNED_CONTEXT((#316))
GLOBAL_UNIT_ASSIGNED_CONTEXT((#322,#318,#317))
REPRESENTATION_CONTEXT('TOOL','TOP_LEVEL_ASSEMBLY_PART')
);
#316=UNCERTAINTY_MEASURE_WITH_UNIT(LENGTH_MEASURE(2.E-5),#322,
'DISTANCE_ACCURACY_VALUE','Maximum Tolerance applied to model');
#317=(
NAMED_UNIT(*)
SI_UNIT($,.STERADIAN.)
SOLID_ANGLE_UNIT()
);
#318=(
CONVERSION_BASED_UNIT('DEGREE',#320)
NAMED_UNIT(#319)
PLANE_ANGLE_UNIT()
);
#319=DIMENSIONAL_EXPONENTS(0.,0.,0.,0.,0.,0.,0.);
#320=PLANE_ANGLE_MEASURE_WITH_UNIT(PLANE_ANGLE_MEASURE(0.0174532925),#321);
#321=(
NAMED_UNIT(*)
PLANE_ANGLE_UNIT()
SI_UNIT($,.RADIAN.)
);
#322=(
LENGTH_UNIT()
NAMED_UNIT(*)
SI_UNIT(.MILLI.,.METRE.)
);
ENDSEC;
END-ISO-10303-21;
