ISO-10303-21;
HEADER;
/* Generated by software containing ST-Developer
 * from STEP Tools, Inc. (www.steptools.com) 
 */
/* OPTION: using custom schema-name function */

FILE_DESCRIPTION(
/* description */ (''),
/* implementation_level */ '2;1');

FILE_NAME(
/* name */ 'TOOL.STP',
/* time_stamp */ '2024-08-27T12:52:03+02:00',
/* author */ (''),
/* organization */ ('SMS'),
/* preprocessor_version */ 'ST-DEVELOPER v16.7',
/* originating_system */ 'SIEMENS PLM Software NX 12.0',
/* authorisation */ '');

FILE_SCHEMA (('AUTOMOTIVE_DESIGN { 1 0 10303 214 3 1 1 1 }'));
ENDSEC;

DATA;
#10=CONSTRUCTIVE_GEOMETRY_REPRESENTATION_RELATIONSHIP(
'supplemental geometry','',#26,#11);
#11=CONSTRUCTIVE_GEOMETRY_REPRESENTATION('supplemental geometry',(#190,
#191,#192),#329);
#12=GEOMETRICALLY_BOUNDED_WIREFRAME_SHAPE_REPRESENTATION('Tool-None',(#27),
#329);
#13=SHAPE_REPRESENTATION_RELATIONSHIP('None',
'relationship between Tool-None and Tool-None',#26,#15);
#14=SHAPE_REPRESENTATION_RELATIONSHIP('None',
'relationship between Tool-None and Tool-None',#26,#12);
#15=ADVANCED_BREP_SHAPE_REPRESENTATION('Tool-None',(#40,#41),#329);
#16=SHAPE_DEFINITION_REPRESENTATION(#17,#26);
#17=PRODUCT_DEFINITION_SHAPE('','',#18);
#18=PRODUCT_DEFINITION(' ','',#20,#19);
#19=PRODUCT_DEFINITION_CONTEXT('part definition',#25,'design');
#20=PRODUCT_DEFINITION_FORMATION_WITH_SPECIFIED_SOURCE(' ',' ',#22,
 .NOT_KNOWN.);
#21=PRODUCT_RELATED_PRODUCT_CATEGORY('part','',(#22));
#22=PRODUCT('Tool','Tool',' ',(#23));
#23=PRODUCT_CONTEXT(' ',#25,'mechanical');
#24=APPLICATION_PROTOCOL_DEFINITION('international standard',
'automotive_design',2010,#25);
#25=APPLICATION_CONTEXT(
'core data for automotive mechanical design processes');
#26=SHAPE_REPRESENTATION('Tool-None',(#189),#329);
#27=GEOMETRIC_CURVE_SET('None',(#259,#260,#261,#156));
#28=SPHERICAL_SURFACE('',#211,2.38124999999999);
#29=VERTEX_LOOP('',#130);
#30=SURFACE_STYLE_USAGE(.BOTH.,#32);
#31=SURFACE_STYLE_USAGE(.BOTH.,#33);
#32=SURFACE_SIDE_STYLE('',(#34));
#33=SURFACE_SIDE_STYLE('',(#35));
#34=SURFACE_STYLE_FILL_AREA(#36);
#35=SURFACE_STYLE_FILL_AREA(#37);
#36=FILL_AREA_STYLE('',(#38));
#37=FILL_AREA_STYLE('',(#39));
#38=FILL_AREA_STYLE_COLOUR('',#187);
#39=FILL_AREA_STYLE_COLOUR('',#188);
#40=MANIFOLD_SOLID_BREP('NOCUT',#42);
#41=MANIFOLD_SOLID_BREP('CUT',#43);
#42=CLOSED_SHELL('',(#56,#57,#58,#59,#60,#61,#62,#63,#64));
#43=CLOSED_SHELL('',(#65,#66));
#44=PLANE('',#202);
#45=PLANE('',#208);
#46=PLANE('',#210);
#47=FACE_OUTER_BOUND('',#93,.T.);
#48=FACE_OUTER_BOUND('',#100,.T.);
#49=FACE_OUTER_BOUND('',#101,.T.);
#50=TOROIDAL_SURFACE('',#198,2.9505,1.);
#51=TOROIDAL_SURFACE('',#200,2.1505,0.2);
#52=CYLINDRICAL_SURFACE('',#197,1.9505);
#53=CYLINDRICAL_SURFACE('',#204,4.7625);
#54=CYLINDRICAL_SURFACE('',#207,1.95066104180097);
#55=B_SPLINE_CURVE_WITH_KNOTS('',3,(#288,#289,#290,#291,#292,#293,#294,
#295,#296,#297,#298,#299,#300,#301,#302,#303,#304,#305),.UNSPECIFIED.,.T.,
 .F.,(2,2,2,2,2,2,2,2,2,2,2),(-0.125,0.,0.125,0.25,0.375,0.5,0.625,0.75,
0.875,1.,1.125),.UNSPECIFIED.);
#56=ADVANCED_FACE('',(#69,#70),#67,.T.);
#57=ADVANCED_FACE('',(#71,#72),#52,.T.);
#58=ADVANCED_FACE('',(#73,#74),#50,.F.);
#59=ADVANCED_FACE('',(#75,#76),#51,.F.);
#60=ADVANCED_FACE('',(#47),#44,.F.);
#61=ADVANCED_FACE('',(#77,#78),#53,.T.);
#62=ADVANCED_FACE('',(#79,#80),#68,.T.);
#63=ADVANCED_FACE('',(#81,#82),#54,.T.);
#64=ADVANCED_FACE('',(#48),#45,.T.);
#65=ADVANCED_FACE('',(#49),#46,.T.);
#66=ADVANCED_FACE('',(#83,#84),#28,.T.);
#67=CONICAL_SURFACE('',#195,1.9505,4.40398531991764);
#68=CONICAL_SURFACE('',#205,4.1625,45.);
#69=FACE_BOUND('',#85,.T.);
#70=FACE_BOUND('',#86,.T.);
#71=FACE_BOUND('',#87,.T.);
#72=FACE_BOUND('',#88,.T.);
#73=FACE_BOUND('',#89,.T.);
#74=FACE_BOUND('',#90,.T.);
#75=FACE_BOUND('',#91,.T.);
#76=FACE_BOUND('',#92,.T.);
#77=FACE_BOUND('',#94,.T.);
#78=FACE_BOUND('',#95,.T.);
#79=FACE_BOUND('',#96,.T.);
#80=FACE_BOUND('',#97,.T.);
#81=FACE_BOUND('',#98,.T.);
#82=FACE_BOUND('',#99,.T.);
#83=FACE_BOUND('',#29,.T.);
#84=FACE_BOUND('',#102,.T.);
#85=EDGE_LOOP('',(#103));
#86=EDGE_LOOP('',(#104));
#87=EDGE_LOOP('',(#105));
#88=EDGE_LOOP('',(#106));
#89=EDGE_LOOP('',(#107));
#90=EDGE_LOOP('',(#108));
#91=EDGE_LOOP('',(#109));
#92=EDGE_LOOP('',(#110));
#93=EDGE_LOOP('',(#111));
#94=EDGE_LOOP('',(#112));
#95=EDGE_LOOP('',(#113));
#96=EDGE_LOOP('',(#114));
#97=EDGE_LOOP('',(#115));
#98=EDGE_LOOP('',(#116));
#99=EDGE_LOOP('',(#117));
#100=EDGE_LOOP('',(#118));
#101=EDGE_LOOP('',(#119));
#102=EDGE_LOOP('',(#120));
#103=ORIENTED_EDGE('',*,*,#131,.T.);
#104=ORIENTED_EDGE('',*,*,#132,.F.);
#105=ORIENTED_EDGE('',*,*,#133,.T.);
#106=ORIENTED_EDGE('',*,*,#134,.T.);
#107=ORIENTED_EDGE('',*,*,#133,.F.);
#108=ORIENTED_EDGE('',*,*,#131,.F.);
#109=ORIENTED_EDGE('',*,*,#135,.T.);
#110=ORIENTED_EDGE('',*,*,#134,.F.);
#111=ORIENTED_EDGE('',*,*,#136,.T.);
#112=ORIENTED_EDGE('',*,*,#137,.T.);
#113=ORIENTED_EDGE('',*,*,#132,.T.);
#114=ORIENTED_EDGE('',*,*,#137,.F.);
#115=ORIENTED_EDGE('',*,*,#136,.F.);
#116=ORIENTED_EDGE('',*,*,#138,.F.);
#117=ORIENTED_EDGE('',*,*,#135,.F.);
#118=ORIENTED_EDGE('',*,*,#138,.T.);
#119=ORIENTED_EDGE('',*,*,#139,.T.);
#120=ORIENTED_EDGE('',*,*,#139,.F.);
#121=VERTEX_POINT('',#282);
#122=VERTEX_POINT('',#284);
#123=VERTEX_POINT('',#287);
#124=VERTEX_POINT('',#306);
#125=VERTEX_POINT('',#310);
#126=VERTEX_POINT('',#313);
#127=VERTEX_POINT('',#316);
#128=VERTEX_POINT('',#320);
#129=VERTEX_POINT('',#324);
#130=VERTEX_POINT('',#326);
#131=EDGE_CURVE('',#121,#121,#140,.T.);
#132=EDGE_CURVE('',#122,#122,#141,.T.);
#133=EDGE_CURVE('',#123,#123,#142,.T.);
#134=EDGE_CURVE('',#124,#124,#55,.T.);
#135=EDGE_CURVE('',#125,#125,#143,.T.);
#136=EDGE_CURVE('',#126,#126,#144,.T.);
#137=EDGE_CURVE('',#127,#127,#145,.T.);
#138=EDGE_CURVE('',#128,#128,#146,.T.);
#139=EDGE_CURVE('',#129,#129,#147,.T.);
#140=CIRCLE('',#193,1.95345258652697);
#141=CIRCLE('',#194,4.7625);
#142=CIRCLE('',#196,1.9505);
#143=CIRCLE('',#199,1.95066104180097);
#144=CIRCLE('',#201,4.1625);
#145=CIRCLE('',#203,4.7625);
#146=CIRCLE('',#206,1.95066104180097);
#147=CIRCLE('',#209,1.95066104180096);
#148=CURVE_STYLE('',#152,POSITIVE_LENGTH_MEASURE(0.18),#159);
#149=CURVE_STYLE('',#153,POSITIVE_LENGTH_MEASURE(0.13),#186);
#150=CURVE_STYLE('',#154,POSITIVE_LENGTH_MEASURE(0.18),#185);
#151=CURVE_STYLE('',#155,POSITIVE_LENGTH_MEASURE(0.18),#185);
#152=DRAUGHTING_PRE_DEFINED_CURVE_FONT('continuous');
#153=DRAUGHTING_PRE_DEFINED_CURVE_FONT('continuous');
#154=DRAUGHTING_PRE_DEFINED_CURVE_FONT('continuous');
#155=DRAUGHTING_PRE_DEFINED_CURVE_FONT('continuous');
#156=TRIMMED_CURVE('CUTTING PART LINE',#157,(PARAMETER_VALUE(0.)),(
PARAMETER_VALUE(1.)),.T.,.PARAMETER.);
#157=(
BOUNDED_CURVE()
B_SPLINE_CURVE(4,(#262,#263,#264,#265,#266,#267,#268,#269,#270,#271,#272,
#273,#274,#275,#276,#277),.UNSPECIFIED.,.T.,.F.)
B_SPLINE_CURVE_WITH_KNOTS((5,4,4,3,5),(0.,0.343993542369833,0.523074087272293,
0.761537043636146,1.),.UNSPECIFIED.)
CURVE()
GEOMETRIC_REPRESENTATION_ITEM()
RATIONAL_B_SPLINE_CURVE((0.539107646098074,0.539107646098074,0.539107646098074,
0.539107646098074,0.539107646098074,0.539107646098074,0.539107646098074,
0.539107646098074,0.539107646098074,0.539107646098074,0.531542512643922,
0.539107646098074,0.539107646098074,0.531542512643922,0.539107646098074,
0.539107646098074))
REPRESENTATION_ITEM('CUTTING PART LINE')
);
#158=DRAUGHTING_PRE_DEFINED_COLOUR('white');
#159=DRAUGHTING_PRE_DEFINED_COLOUR('blue');
#160=PRESENTATION_LAYER_ASSIGNMENT('1','Layer 1',(#259,#260,#261,#156,#190,
#191,#192,#40,#41));
#161=STYLED_ITEM('',(#170),#259);
#162=STYLED_ITEM('',(#171),#260);
#163=STYLED_ITEM('',(#172),#261);
#164=STYLED_ITEM('',(#173),#156);
#165=STYLED_ITEM('',(#174),#190);
#166=STYLED_ITEM('',(#175),#191);
#167=STYLED_ITEM('',(#176),#192);
#168=STYLED_ITEM('',(#177),#40);
#169=STYLED_ITEM('',(#178),#41);
#170=PRESENTATION_STYLE_ASSIGNMENT((#179));
#171=PRESENTATION_STYLE_ASSIGNMENT((#180));
#172=PRESENTATION_STYLE_ASSIGNMENT((#181));
#173=PRESENTATION_STYLE_ASSIGNMENT((#148));
#174=PRESENTATION_STYLE_ASSIGNMENT((#149));
#175=PRESENTATION_STYLE_ASSIGNMENT((#150));
#176=PRESENTATION_STYLE_ASSIGNMENT((#151));
#177=PRESENTATION_STYLE_ASSIGNMENT((#30));
#178=PRESENTATION_STYLE_ASSIGNMENT((#31));
#179=POINT_STYLE('',#182,POSITIVE_LENGTH_MEASURE(3.),#185);
#180=POINT_STYLE('',#183,POSITIVE_LENGTH_MEASURE(3.),#158);
#181=POINT_STYLE('',#184,POSITIVE_LENGTH_MEASURE(3.),#185);
#182=PRE_DEFINED_POINT_MARKER_SYMBOL('plus');
#183=PRE_DEFINED_POINT_MARKER_SYMBOL('plus');
#184=PRE_DEFINED_POINT_MARKER_SYMBOL('plus');
#185=COLOUR_RGB('Medium Maroon',0.6,0.4,0.4);
#186=COLOUR_RGB('Silver Gray',0.6,0.6,0.6);
#187=COLOUR_RGB('TLS_NOCUT',0.498023956664378,0.498023956664378,0.498023956664378);
#188=COLOUR_RGB('TLS_CUT',0.8,0.8,0.8);
#189=AXIS2_PLACEMENT_3D('',#258,#212,#213);
#190=AXIS2_PLACEMENT_3D('PCS',#278,#214,#215);
#191=AXIS2_PLACEMENT_3D('MCS',#279,#216,#217);
#192=AXIS2_PLACEMENT_3D('CIP',#280,#218,#219);
#193=AXIS2_PLACEMENT_3D('',#281,#220,#221);
#194=AXIS2_PLACEMENT_3D('',#283,#222,#223);
#195=AXIS2_PLACEMENT_3D('',#285,#224,#225);
#196=AXIS2_PLACEMENT_3D('',#286,#226,#227);
#197=AXIS2_PLACEMENT_3D('',#307,#228,#229);
#198=AXIS2_PLACEMENT_3D('',#308,#230,#231);
#199=AXIS2_PLACEMENT_3D('',#309,#232,#233);
#200=AXIS2_PLACEMENT_3D('',#311,#234,#235);
#201=AXIS2_PLACEMENT_3D('',#312,#236,#237);
#202=AXIS2_PLACEMENT_3D('',#314,#238,#239);
#203=AXIS2_PLACEMENT_3D('',#315,#240,#241);
#204=AXIS2_PLACEMENT_3D('',#317,#242,#243);
#205=AXIS2_PLACEMENT_3D('',#318,#244,#245);
#206=AXIS2_PLACEMENT_3D('',#319,#246,#247);
#207=AXIS2_PLACEMENT_3D('',#321,#248,#249);
#208=AXIS2_PLACEMENT_3D('',#322,#250,#251);
#209=AXIS2_PLACEMENT_3D('',#323,#252,#253);
#210=AXIS2_PLACEMENT_3D('',#325,#254,#255);
#211=AXIS2_PLACEMENT_3D('',#327,#256,#257);
#212=DIRECTION('',(0.,0.,1.));
#213=DIRECTION('',(1.,0.,0.));
#214=DIRECTION('',(0.,0.,1.));
#215=DIRECTION('',(1.,0.,0.));
#216=DIRECTION('',(0.,0.,1.));
#217=DIRECTION('',(1.,0.,0.));
#218=DIRECTION('',(0.,0.,1.));
#219=DIRECTION('',(1.,0.,0.));
#220=DIRECTION('',(0.,0.,1.));
#221=DIRECTION('',(1.,0.,0.));
#222=DIRECTION('',(0.,0.,1.));
#223=DIRECTION('',(1.,0.,0.));
#224=DIRECTION('',(0.,0.,1.));
#225=DIRECTION('',(1.,0.,-7.02972892979741E-16));
#226=DIRECTION('',(0.,0.,-1.));
#227=DIRECTION('',(1.,0.,0.));
#228=DIRECTION('',(0.,0.,1.));
#229=DIRECTION('',(1.,0.,0.));
#230=DIRECTION('',(0.,0.,1.));
#231=DIRECTION('',(1.,0.,0.));
#232=DIRECTION('',(0.,0.,1.));
#233=DIRECTION('',(1.,0.,0.));
#234=DIRECTION('',(0.,0.,1.));
#235=DIRECTION('',(1.,0.,0.));
#236=DIRECTION('',(0.,0.,1.));
#237=DIRECTION('',(-1.,0.,0.));
#238=DIRECTION('',(0.,0.,-1.));
#239=DIRECTION('',(-1.,0.,0.));
#240=DIRECTION('',(0.,0.,-1.));
#241=DIRECTION('',(-1.,0.,0.));
#242=DIRECTION('',(0.,0.,1.));
#243=DIRECTION('',(1.,0.,0.));
#244=DIRECTION('',(0.,0.,-1.));
#245=DIRECTION('',(-1.,0.,0.));
#246=DIRECTION('',(0.,0.,-1.));
#247=DIRECTION('',(-1.,0.,0.));
#248=DIRECTION('',(0.,0.,-1.));
#249=DIRECTION('',(-1.,0.,0.));
#250=DIRECTION('',(0.,0.,-1.));
#251=DIRECTION('',(-1.,0.,0.));
#252=DIRECTION('',(0.,0.,1.));
#253=DIRECTION('',(-1.,0.,0.));
#254=DIRECTION('',(0.,0.,1.));
#255=DIRECTION('',(1.,0.,0.));
#256=DIRECTION('',(0.,-6.12323399573676E-17,-0.999999999999997));
#257=DIRECTION('',(0.,-1.,0.));
#258=CARTESIAN_POINT('',(0.,0.,0.));
#259=CARTESIAN_POINT('',(0.,0.,-39.7));
#260=CARTESIAN_POINT('CRP',(-2.38125,0.,-88.9));
#261=CARTESIAN_POINT('CIP_DCSYS',(0.,0.,-88.9));
#262=CARTESIAN_POINT('',(0.,0.,-88.9));
#263=CARTESIAN_POINT('',(0.,0.,-87.96325));
#264=CARTESIAN_POINT('',(0.,0.,-87.0265));
#265=CARTESIAN_POINT('',(0.,0.,-86.08975));
#266=CARTESIAN_POINT('',(0.,0.,-85.153));
#267=CARTESIAN_POINT('',(-0.487665260450236,0.,-85.153));
#268=CARTESIAN_POINT('',(-0.975330520900471,0.,-85.153));
#269=CARTESIAN_POINT('',(-1.46299578135071,0.,-85.153));
#270=CARTESIAN_POINT('',(-1.95066104180095,0.,-85.153));
#271=CARTESIAN_POINT('',(-2.30491242784458,0.,-85.6589669615664));
#272=CARTESIAN_POINT('',(-2.52652342005306,0.,-86.3532298699767));
#273=CARTESIAN_POINT('',(-2.3973843233221,0.,-87.0704714691309));
#274=CARTESIAN_POINT('',(-1.82696030040356,0.,-88.1661917239951));
#275=CARTESIAN_POINT('',(-1.31348060542448,0.,-88.6833483933962));
#276=CARTESIAN_POINT('',(-0.617654118994238,0.,-88.9));
#277=CARTESIAN_POINT('',(2.91619019046963E-16,0.,-88.9));
#278=CARTESIAN_POINT('',(0.,0.,0.));
#279=CARTESIAN_POINT('',(0.,0.,-39.7));
#280=CARTESIAN_POINT('',(0.,0.,-88.9));
#281=CARTESIAN_POINT('',(0.,0.,-77.7089870315159));
#282=CARTESIAN_POINT('',(1.95345258652697,0.,-77.7089870315159));
#283=CARTESIAN_POINT('',(0.,0.,-41.2353244565772));
#284=CARTESIAN_POINT('',(4.7625,0.,-41.2353244565772));
#285=CARTESIAN_POINT('',(0.,0.,-77.7473244565773));
#286=CARTESIAN_POINT('',(0.,0.,-77.7857754114099));
#287=CARTESIAN_POINT('',(1.9505,0.,-77.7857754114099));
#288=CARTESIAN_POINT('',(1.9505,-0.510639705902241,-84.9525969602484));
#289=CARTESIAN_POINT('',(1.9505,0.510639705902242,-84.9525969602484));
#290=CARTESIAN_POINT('',(1.74028857549094,1.01813497791778,-84.9525969602483));
#291=CARTESIAN_POINT('',(1.01813497791778,1.74028857549094,-84.9525969602484));
#292=CARTESIAN_POINT('',(0.510639705902243,1.9505,-84.9525969602483));
#293=CARTESIAN_POINT('',(-0.510639705902242,1.9505,-84.9525969602483));
#294=CARTESIAN_POINT('',(-1.01813497791778,1.74028857549094,-84.9525969602483));
#295=CARTESIAN_POINT('',(-1.74028857549094,1.01813497791778,-84.9525969602484));
#296=CARTESIAN_POINT('',(-1.9505,0.510639705902242,-84.9525969602484));
#297=CARTESIAN_POINT('',(-1.9505,-0.510639705902241,-84.9525969602483));
#298=CARTESIAN_POINT('',(-1.74028857549094,-1.01813497791778,-84.9525969602484));
#299=CARTESIAN_POINT('',(-1.01813497791778,-1.74028857549094,-84.9525969602484));
#300=CARTESIAN_POINT('',(-0.510639705902241,-1.9505,-84.9525969602484));
#301=CARTESIAN_POINT('',(0.510639705902242,-1.9505,-84.9525969602484));
#302=CARTESIAN_POINT('',(1.01813497791778,-1.74028857549094,-84.9525969602484));
#303=CARTESIAN_POINT('',(1.74028857549094,-1.01813497791778,-84.9525969602484));
#304=CARTESIAN_POINT('',(1.9505,-0.510639705902241,-84.9525969602484));
#305=CARTESIAN_POINT('',(1.9505,0.510639705902242,-84.9525969602484));
#306=CARTESIAN_POINT('',(1.9505,-2.38867358173692E-16,-84.9525969602484));
#307=CARTESIAN_POINT('',(0.,0.,0.));
#308=CARTESIAN_POINT('',(0.,0.,-77.7857754114099));
#309=CARTESIAN_POINT('',(0.,0.,-84.9606213471984));
#310=CARTESIAN_POINT('',(1.95066104180097,0.,-84.9606213471984));
#311=CARTESIAN_POINT('',(0.,0.,-84.9525969602484));
#312=CARTESIAN_POINT('',(0.,0.,0.));
#313=CARTESIAN_POINT('',(-4.1625,0.,0.));
#314=CARTESIAN_POINT('',(0.,4.7625,0.));
#315=CARTESIAN_POINT('',(0.,0.,-0.6));
#316=CARTESIAN_POINT('',(-4.7625,0.,-0.6));
#317=CARTESIAN_POINT('',(0.,0.,20.9080749503476));
#318=CARTESIAN_POINT('',(0.,0.,0.));
#319=CARTESIAN_POINT('',(0.,0.,-85.153));
#320=CARTESIAN_POINT('',(-1.95066104180097,0.,-85.153));
#321=CARTESIAN_POINT('',(0.,0.,-86.51875));
#322=CARTESIAN_POINT('',(0.,0.,-85.153));
#323=CARTESIAN_POINT('',(0.,0.,-85.153));
#324=CARTESIAN_POINT('',(-1.95066104180096,0.,-85.153));
#325=CARTESIAN_POINT('',(0.,0.,-85.153));
#326=CARTESIAN_POINT('',(0.,-4.10782519111308E-15,-88.9));
#327=CARTESIAN_POINT('',(0.,-4.10782519111308E-15,-86.51875));
#328=MECHANICAL_DESIGN_GEOMETRIC_PRESENTATION_REPRESENTATION('',(#161,#162,
#163,#164,#165,#166,#167,#168,#169),#329);
#329=(
GEOMETRIC_REPRESENTATION_CONTEXT(3)
GLOBAL_UNCERTAINTY_ASSIGNED_CONTEXT((#330))
GLOBAL_UNIT_ASSIGNED_CONTEXT((#336,#332,#331))
REPRESENTATION_CONTEXT('TOOL','TOP_LEVEL_ASSEMBLY_PART')
);
#330=UNCERTAINTY_MEASURE_WITH_UNIT(LENGTH_MEASURE(0.0508),#336,
'DISTANCE_ACCURACY_VALUE','Maximum Tolerance applied to model');
#331=(
NAMED_UNIT(*)
SI_UNIT($,.STERADIAN.)
SOLID_ANGLE_UNIT()
);
#332=(
CONVERSION_BASED_UNIT('DEGREE',#334)
NAMED_UNIT(#333)
PLANE_ANGLE_UNIT()
);
#333=DIMENSIONAL_EXPONENTS(0.,0.,0.,0.,0.,0.,0.);
#334=PLANE_ANGLE_MEASURE_WITH_UNIT(PLANE_ANGLE_MEASURE(0.0174532925),#335);
#335=(
NAMED_UNIT(*)
PLANE_ANGLE_UNIT()
SI_UNIT($,.RADIAN.)
);
#336=(
LENGTH_UNIT()
NAMED_UNIT(*)
SI_UNIT(.MILLI.,.METRE.)
);
ENDSEC;
END-ISO-10303-21;
