ISO-10303-21;
HEADER;
/* Generated by software containing ST-Developer
 * from STEP Tools, Inc. (www.steptools.com) 
 */
/* OPTION: using custom schema-name function */

FILE_DESCRIPTION(
/* description */ (''),
/* implementation_level */ '2;1');

FILE_NAME(
/* name */ 'TOOL.STP',
/* time_stamp */ '2024-08-27T12:49:12+02:00',
/* author */ (''),
/* organization */ ('SMS'),
/* preprocessor_version */ 'ST-DEVELOPER v16.7',
/* originating_system */ 'SIEMENS PLM Software NX 12.0',
/* authorisation */ '');

FILE_SCHEMA (('AUTOMOTIVE_DESIGN { 1 0 10303 214 3 1 1 1 }'));
ENDSEC;

DATA;
#10=CONSTRUCTIVE_GEOMETRY_REPRESENTATION_RELATIONSHIP(
'supplemental geometry','',#26,#11);
#11=CONSTRUCTIVE_GEOMETRY_REPRESENTATION('supplemental geometry',(#179,
#180,#181),#323);
#12=GEOMETRICALLY_BOUNDED_WIREFRAME_SHAPE_REPRESENTATION('Tool-None',(#27),
#323);
#13=SHAPE_REPRESENTATION_RELATIONSHIP('None',
'relationship between Tool-None and Tool-None',#26,#15);
#14=SHAPE_REPRESENTATION_RELATIONSHIP('None',
'relationship between Tool-None and Tool-None',#26,#12);
#15=ADVANCED_BREP_SHAPE_REPRESENTATION('Tool-None',(#40,#41),#323);
#16=SHAPE_DEFINITION_REPRESENTATION(#17,#26);
#17=PRODUCT_DEFINITION_SHAPE('','',#18);
#18=PRODUCT_DEFINITION(' ','',#20,#19);
#19=PRODUCT_DEFINITION_CONTEXT('part definition',#25,'design');
#20=PRODUCT_DEFINITION_FORMATION_WITH_SPECIFIED_SOURCE(' ',' ',#22,
 .NOT_KNOWN.);
#21=PRODUCT_RELATED_PRODUCT_CATEGORY('part','',(#22));
#22=PRODUCT('Tool','Tool',' ',(#23));
#23=PRODUCT_CONTEXT(' ',#25,'mechanical');
#24=APPLICATION_PROTOCOL_DEFINITION('international standard',
'automotive_design',2010,#25);
#25=APPLICATION_CONTEXT(
'core data for automotive mechanical design processes');
#26=SHAPE_REPRESENTATION('Tool-None',(#178),#323);
#27=GEOMETRIC_CURVE_SET('None',(#239,#240,#241,#145));
#28=SPHERICAL_SURFACE('',#197,2.5);
#29=VERTEX_LOOP('',#122);
#30=SURFACE_STYLE_USAGE(.BOTH.,#32);
#31=SURFACE_STYLE_USAGE(.BOTH.,#33);
#32=SURFACE_SIDE_STYLE('',(#34));
#33=SURFACE_SIDE_STYLE('',(#35));
#34=SURFACE_STYLE_FILL_AREA(#36);
#35=SURFACE_STYLE_FILL_AREA(#37);
#36=FILL_AREA_STYLE('',(#38));
#37=FILL_AREA_STYLE('',(#39));
#38=FILL_AREA_STYLE_COLOUR('',#176);
#39=FILL_AREA_STYLE_COLOUR('',#177);
#40=MANIFOLD_SOLID_BREP('NOCUT',#42);
#41=MANIFOLD_SOLID_BREP('CUT',#43);
#42=CLOSED_SHELL('',(#56,#57,#58,#59,#60,#61,#62,#63));
#43=CLOSED_SHELL('',(#64,#65));
#44=PLANE('',#188);
#45=PLANE('',#194);
#46=PLANE('',#196);
#47=FACE_OUTER_BOUND('',#88,.T.);
#48=FACE_OUTER_BOUND('',#95,.T.);
#49=FACE_OUTER_BOUND('',#96,.T.);
#50=TOROIDAL_SURFACE('',#186,3.048,1.);
#51=CYLINDRICAL_SURFACE('',#185,2.048);
#52=CYLINDRICAL_SURFACE('',#190,5.);
#53=CYLINDRICAL_SURFACE('',#193,2.04783886084819);
#54=B_SPLINE_CURVE_WITH_KNOTS('',3,(#266,#267,#268,#269,#270,#271,#272,
#273,#274,#275,#276,#277,#278,#279,#280,#281,#282,#283),.UNSPECIFIED.,.T.,
 .F.,(2,2,2,2,2,2,2,2,2,2,2),(-0.125,0.,0.125,0.25,0.375,0.5,0.625,0.75,
0.875,1.,1.125),.UNSPECIFIED.);
#55=B_SPLINE_CURVE_WITH_KNOTS('',3,(#285,#286,#287,#288,#289,#290,#291,
#292,#293,#294,#295,#296,#297,#298,#299,#300,#301,#302),.UNSPECIFIED.,.T.,
 .F.,(2,2,2,2,2,2,2,2,2,2,2),(-0.125,0.,0.125,0.25,0.375,0.5,0.625,0.75,
0.875,1.,1.125),.UNSPECIFIED.);
#56=ADVANCED_FACE('',(#68,#69),#66,.T.);
#57=ADVANCED_FACE('',(#70,#71),#51,.T.);
#58=ADVANCED_FACE('',(#72,#73),#50,.F.);
#59=ADVANCED_FACE('',(#47),#44,.F.);
#60=ADVANCED_FACE('',(#74,#75),#52,.T.);
#61=ADVANCED_FACE('',(#76,#77),#67,.T.);
#62=ADVANCED_FACE('',(#78,#79),#53,.T.);
#63=ADVANCED_FACE('',(#48),#45,.T.);
#64=ADVANCED_FACE('',(#49),#46,.T.);
#65=ADVANCED_FACE('',(#80,#81),#28,.T.);
#66=CONICAL_SURFACE('',#184,2.048,3.2182710011564);
#67=CONICAL_SURFACE('',#191,4.4,45.);
#68=FACE_BOUND('',#82,.T.);
#69=FACE_BOUND('',#83,.T.);
#70=FACE_BOUND('',#84,.T.);
#71=FACE_BOUND('',#85,.T.);
#72=FACE_BOUND('',#86,.T.);
#73=FACE_BOUND('',#87,.T.);
#74=FACE_BOUND('',#89,.T.);
#75=FACE_BOUND('',#90,.T.);
#76=FACE_BOUND('',#91,.T.);
#77=FACE_BOUND('',#92,.T.);
#78=FACE_BOUND('',#93,.T.);
#79=FACE_BOUND('',#94,.T.);
#80=FACE_BOUND('',#29,.T.);
#81=FACE_BOUND('',#97,.T.);
#82=EDGE_LOOP('',(#98));
#83=EDGE_LOOP('',(#99));
#84=EDGE_LOOP('',(#100));
#85=EDGE_LOOP('',(#101));
#86=EDGE_LOOP('',(#102));
#87=EDGE_LOOP('',(#103));
#88=EDGE_LOOP('',(#104));
#89=EDGE_LOOP('',(#105));
#90=EDGE_LOOP('',(#106));
#91=EDGE_LOOP('',(#107));
#92=EDGE_LOOP('',(#108));
#93=EDGE_LOOP('',(#109));
#94=EDGE_LOOP('',(#110));
#95=EDGE_LOOP('',(#111));
#96=EDGE_LOOP('',(#112));
#97=EDGE_LOOP('',(#113));
#98=ORIENTED_EDGE('',*,*,#123,.T.);
#99=ORIENTED_EDGE('',*,*,#124,.F.);
#100=ORIENTED_EDGE('',*,*,#125,.T.);
#101=ORIENTED_EDGE('',*,*,#126,.T.);
#102=ORIENTED_EDGE('',*,*,#126,.F.);
#103=ORIENTED_EDGE('',*,*,#123,.F.);
#104=ORIENTED_EDGE('',*,*,#127,.T.);
#105=ORIENTED_EDGE('',*,*,#128,.T.);
#106=ORIENTED_EDGE('',*,*,#124,.T.);
#107=ORIENTED_EDGE('',*,*,#128,.F.);
#108=ORIENTED_EDGE('',*,*,#127,.F.);
#109=ORIENTED_EDGE('',*,*,#129,.F.);
#110=ORIENTED_EDGE('',*,*,#125,.F.);
#111=ORIENTED_EDGE('',*,*,#129,.T.);
#112=ORIENTED_EDGE('',*,*,#130,.T.);
#113=ORIENTED_EDGE('',*,*,#130,.F.);
#114=VERTEX_POINT('',#262);
#115=VERTEX_POINT('',#264);
#116=VERTEX_POINT('',#284);
#117=VERTEX_POINT('',#303);
#118=VERTEX_POINT('',#307);
#119=VERTEX_POINT('',#310);
#120=VERTEX_POINT('',#314);
#121=VERTEX_POINT('',#318);
#122=VERTEX_POINT('',#320);
#123=EDGE_CURVE('',#114,#114,#131,.T.);
#124=EDGE_CURVE('',#115,#115,#132,.T.);
#125=EDGE_CURVE('',#116,#116,#54,.T.);
#126=EDGE_CURVE('',#117,#117,#55,.T.);
#127=EDGE_CURVE('',#118,#118,#133,.T.);
#128=EDGE_CURVE('',#119,#119,#134,.T.);
#129=EDGE_CURVE('',#120,#120,#135,.T.);
#130=EDGE_CURVE('',#121,#121,#136,.T.);
#131=CIRCLE('',#182,2.04957708745462);
#132=CIRCLE('',#183,5.);
#133=CIRCLE('',#187,4.4);
#134=CIRCLE('',#189,5.);
#135=CIRCLE('',#192,2.04783886084818);
#136=CIRCLE('',#195,2.04783886084819);
#137=CURVE_STYLE('',#141,POSITIVE_LENGTH_MEASURE(0.18),#148);
#138=CURVE_STYLE('',#142,POSITIVE_LENGTH_MEASURE(0.13),#175);
#139=CURVE_STYLE('',#143,POSITIVE_LENGTH_MEASURE(0.18),#174);
#140=CURVE_STYLE('',#144,POSITIVE_LENGTH_MEASURE(0.18),#174);
#141=DRAUGHTING_PRE_DEFINED_CURVE_FONT('continuous');
#142=DRAUGHTING_PRE_DEFINED_CURVE_FONT('continuous');
#143=DRAUGHTING_PRE_DEFINED_CURVE_FONT('continuous');
#144=DRAUGHTING_PRE_DEFINED_CURVE_FONT('continuous');
#145=TRIMMED_CURVE('CUTTING PART LINE',#146,(PARAMETER_VALUE(0.)),(
PARAMETER_VALUE(1.)),.T.,.PARAMETER.);
#146=(
BOUNDED_CURVE()
B_SPLINE_CURVE(4,(#242,#243,#244,#245,#246,#247,#248,#249,#250,#251,#252,
#253,#254,#255,#256,#257),.UNSPECIFIED.,.T.,.F.)
B_SPLINE_CURVE_WITH_KNOTS((5,4,4,3,5),(0.,0.343999453228626,0.523067945454232,
0.761533972727116,1.),.UNSPECIFIED.)
CURVE()
GEOMETRIC_REPRESENTATION_ITEM()
RATIONAL_B_SPLINE_CURVE((0.539110254845959,0.539110254845959,0.539110254845959,
0.539110254845959,0.539110254845959,0.539110254845959,0.539110254845959,
0.539110254845959,0.539110254845959,0.539110254845959,0.531544148678169,
0.539110254845959,0.539110254845959,0.531544148678169,0.539110254845959,
0.539110254845959))
REPRESENTATION_ITEM('CUTTING PART LINE')
);
#147=DRAUGHTING_PRE_DEFINED_COLOUR('white');
#148=DRAUGHTING_PRE_DEFINED_COLOUR('blue');
#149=PRESENTATION_LAYER_ASSIGNMENT('1','Layer 1',(#239,#240,#241,#145,#179,
#180,#181,#40,#41));
#150=STYLED_ITEM('',(#159),#239);
#151=STYLED_ITEM('',(#160),#240);
#152=STYLED_ITEM('',(#161),#241);
#153=STYLED_ITEM('',(#162),#145);
#154=STYLED_ITEM('',(#163),#179);
#155=STYLED_ITEM('',(#164),#180);
#156=STYLED_ITEM('',(#165),#181);
#157=STYLED_ITEM('',(#166),#40);
#158=STYLED_ITEM('',(#167),#41);
#159=PRESENTATION_STYLE_ASSIGNMENT((#168));
#160=PRESENTATION_STYLE_ASSIGNMENT((#169));
#161=PRESENTATION_STYLE_ASSIGNMENT((#170));
#162=PRESENTATION_STYLE_ASSIGNMENT((#137));
#163=PRESENTATION_STYLE_ASSIGNMENT((#138));
#164=PRESENTATION_STYLE_ASSIGNMENT((#139));
#165=PRESENTATION_STYLE_ASSIGNMENT((#140));
#166=PRESENTATION_STYLE_ASSIGNMENT((#30));
#167=PRESENTATION_STYLE_ASSIGNMENT((#31));
#168=POINT_STYLE('',#171,POSITIVE_LENGTH_MEASURE(3.),#174);
#169=POINT_STYLE('',#172,POSITIVE_LENGTH_MEASURE(3.),#147);
#170=POINT_STYLE('',#173,POSITIVE_LENGTH_MEASURE(3.),#174);
#171=PRE_DEFINED_POINT_MARKER_SYMBOL('plus');
#172=PRE_DEFINED_POINT_MARKER_SYMBOL('plus');
#173=PRE_DEFINED_POINT_MARKER_SYMBOL('plus');
#174=COLOUR_RGB('Medium Maroon',0.6,0.4,0.4);
#175=COLOUR_RGB('Silver Gray',0.6,0.6,0.6);
#176=COLOUR_RGB('TLS_NOCUT',0.498023956664378,0.498023956664378,0.498023956664378);
#177=COLOUR_RGB('TLS_CUT',0.8,0.8,0.8);
#178=AXIS2_PLACEMENT_3D('',#238,#198,#199);
#179=AXIS2_PLACEMENT_3D('PCS',#258,#200,#201);
#180=AXIS2_PLACEMENT_3D('MCS',#259,#202,#203);
#181=AXIS2_PLACEMENT_3D('CIP',#260,#204,#205);
#182=AXIS2_PLACEMENT_3D('',#261,#206,#207);
#183=AXIS2_PLACEMENT_3D('',#263,#208,#209);
#184=AXIS2_PLACEMENT_3D('',#265,#210,#211);
#185=AXIS2_PLACEMENT_3D('',#304,#212,#213);
#186=AXIS2_PLACEMENT_3D('',#305,#214,#215);
#187=AXIS2_PLACEMENT_3D('',#306,#216,#217);
#188=AXIS2_PLACEMENT_3D('',#308,#218,#219);
#189=AXIS2_PLACEMENT_3D('',#309,#220,#221);
#190=AXIS2_PLACEMENT_3D('',#311,#222,#223);
#191=AXIS2_PLACEMENT_3D('',#312,#224,#225);
#192=AXIS2_PLACEMENT_3D('',#313,#226,#227);
#193=AXIS2_PLACEMENT_3D('',#315,#228,#229);
#194=AXIS2_PLACEMENT_3D('',#316,#230,#231);
#195=AXIS2_PLACEMENT_3D('',#317,#232,#233);
#196=AXIS2_PLACEMENT_3D('',#319,#234,#235);
#197=AXIS2_PLACEMENT_3D('',#321,#236,#237);
#198=DIRECTION('',(0.,0.,1.));
#199=DIRECTION('',(1.,0.,0.));
#200=DIRECTION('',(0.,0.,1.));
#201=DIRECTION('',(1.,0.,0.));
#202=DIRECTION('',(0.,0.,1.));
#203=DIRECTION('',(1.,0.,0.));
#204=DIRECTION('',(0.,0.,1.));
#205=DIRECTION('',(1.,0.,0.));
#206=DIRECTION('',(0.,0.,1.));
#207=DIRECTION('',(1.,0.,0.));
#208=DIRECTION('',(0.,0.,1.));
#209=DIRECTION('',(1.,0.,0.));
#210=DIRECTION('',(0.,0.,1.));
#211=DIRECTION('',(1.,0.,4.76273310787484E-16));
#212=DIRECTION('',(0.,0.,1.));
#213=DIRECTION('',(1.,0.,0.));
#214=DIRECTION('',(0.,0.,1.));
#215=DIRECTION('',(1.,0.,0.));
#216=DIRECTION('',(0.,0.,1.));
#217=DIRECTION('',(-1.,0.,0.));
#218=DIRECTION('',(0.,0.,-1.));
#219=DIRECTION('',(-1.,0.,0.));
#220=DIRECTION('',(0.,0.,-1.));
#221=DIRECTION('',(-1.,0.,0.));
#222=DIRECTION('',(0.,0.,1.));
#223=DIRECTION('',(1.,0.,0.));
#224=DIRECTION('',(0.,0.,-1.));
#225=DIRECTION('',(-1.,0.,0.));
#226=DIRECTION('',(0.,0.,-1.));
#227=DIRECTION('',(-1.,0.,0.));
#228=DIRECTION('',(0.,0.,-1.));
#229=DIRECTION('',(-1.,0.,0.));
#230=DIRECTION('',(0.,0.,-1.));
#231=DIRECTION('',(-1.,0.,0.));
#232=DIRECTION('',(0.,0.,1.));
#233=DIRECTION('',(-1.,0.,0.));
#234=DIRECTION('',(0.,0.,1.));
#235=DIRECTION('',(1.,0.,0.));
#236=DIRECTION('',(0.,-6.12323399573677E-17,-1.));
#237=DIRECTION('',(0.,-1.,0.));
#238=CARTESIAN_POINT('',(0.,0.,0.));
#239=CARTESIAN_POINT('',(0.,0.,-40.));
#240=CARTESIAN_POINT('CRP',(-2.5,0.,-105.));
#241=CARTESIAN_POINT('CIP_DCSYS',(0.,0.,-105.));
#242=CARTESIAN_POINT('',(0.,0.,-105.));
#243=CARTESIAN_POINT('',(0.,0.,-104.0165));
#244=CARTESIAN_POINT('',(0.,0.,-103.033));
#245=CARTESIAN_POINT('',(0.,0.,-102.0495));
#246=CARTESIAN_POINT('',(0.,0.,-101.066));
#247=CARTESIAN_POINT('',(-0.511959715212046,0.,-101.066));
#248=CARTESIAN_POINT('',(-1.02391943042409,0.,-101.066));
#249=CARTESIAN_POINT('',(-1.53587914563614,0.,-101.066));
#250=CARTESIAN_POINT('',(-2.04783886084818,0.,-101.066));
#251=CARTESIAN_POINT('',(-2.41980369515611,0.,-101.597188314201));
#252=CARTESIAN_POINT('',(-2.6525212441682,0.,-102.326087099335));
#253=CARTESIAN_POINT('',(-2.51696750219734,0.,-103.079131639602));
#254=CARTESIAN_POINT('',(-1.91811987011,0.,-104.229547636521));
#255=CARTESIAN_POINT('',(-1.3790279471013,0.,-104.772530873035));
#256=CARTESIAN_POINT('',(-0.648474257858995,0.,-105.));
#257=CARTESIAN_POINT('',(3.06161699786838E-16,0.,-105.));
#258=CARTESIAN_POINT('',(0.,0.,0.));
#259=CARTESIAN_POINT('',(0.,0.,-40.));
#260=CARTESIAN_POINT('',(0.,0.,-105.));
#261=CARTESIAN_POINT('',(0.,0.,-92.4429587723785));
#262=CARTESIAN_POINT('',(2.04957708745462,0.,-92.4429587723785));
#263=CARTESIAN_POINT('',(0.,0.,-39.9710065675569));
#264=CARTESIAN_POINT('',(5.,0.,-39.9710065675569));
#265=CARTESIAN_POINT('',(0.,0.,-92.4710065675572));
#266=CARTESIAN_POINT('',(2.048,-0.536165146212658,-100.865559871964));
#267=CARTESIAN_POINT('',(2.048,0.536165146212658,-100.865559871964));
#268=CARTESIAN_POINT('',(1.8272806985929,1.0690286771472,-100.865559871964));
#269=CARTESIAN_POINT('',(1.0690286771472,1.8272806985929,-100.865559871964));
#270=CARTESIAN_POINT('',(0.536165146212659,2.048,-100.865559871964));
#271=CARTESIAN_POINT('',(-0.536165146212658,2.048,-100.865559871964));
#272=CARTESIAN_POINT('',(-1.0690286771472,1.8272806985929,-100.865559871964));
#273=CARTESIAN_POINT('',(-1.8272806985929,1.0690286771472,-100.865559871964));
#274=CARTESIAN_POINT('',(-2.048,0.536165146212659,-100.865559871964));
#275=CARTESIAN_POINT('',(-2.048,-0.536165146212658,-100.865559871964));
#276=CARTESIAN_POINT('',(-1.8272806985929,-1.0690286771472,-100.865559871964));
#277=CARTESIAN_POINT('',(-1.0690286771472,-1.8272806985929,-100.865559871964));
#278=CARTESIAN_POINT('',(-0.536165146212658,-2.048,-100.865559871964));
#279=CARTESIAN_POINT('',(0.536165146212658,-2.048,-100.865559871964));
#280=CARTESIAN_POINT('',(1.0690286771472,-1.8272806985929,-100.865559871964));
#281=CARTESIAN_POINT('',(1.8272806985929,-1.0690286771472,-100.865559871964));
#282=CARTESIAN_POINT('',(2.048,-0.536165146212658,-100.865559871964));
#283=CARTESIAN_POINT('',(2.048,0.536165146212658,-100.865559871964));
#284=CARTESIAN_POINT('',(2.0479194304241,-1.25413699160013E-16,-100.865559871964));
#285=CARTESIAN_POINT('',(2.048,0.536165146212658,-92.4990986664325));
#286=CARTESIAN_POINT('',(2.048,-0.536165146212659,-92.4990986664325));
#287=CARTESIAN_POINT('',(1.8272806985929,-1.0690286771472,-92.4990986664325));
#288=CARTESIAN_POINT('',(1.0690286771472,-1.8272806985929,-92.4990986664325));
#289=CARTESIAN_POINT('',(0.536165146212658,-2.048,-92.4990986664325));
#290=CARTESIAN_POINT('',(-0.536165146212659,-2.048,-92.4990986664325));
#291=CARTESIAN_POINT('',(-1.0690286771472,-1.8272806985929,-92.4990986664325));
#292=CARTESIAN_POINT('',(-1.8272806985929,-1.0690286771472,-92.4990986664325));
#293=CARTESIAN_POINT('',(-2.048,-0.536165146212658,-92.4990986664325));
#294=CARTESIAN_POINT('',(-2.048,0.536165146212659,-92.4990986664325));
#295=CARTESIAN_POINT('',(-1.8272806985929,1.0690286771472,-92.4990986664325));
#296=CARTESIAN_POINT('',(-1.0690286771472,1.8272806985929,-92.4990986664325));
#297=CARTESIAN_POINT('',(-0.536165146212657,2.048,-92.4990986664325));
#298=CARTESIAN_POINT('',(0.536165146212658,2.048,-92.4990986664325));
#299=CARTESIAN_POINT('',(1.0690286771472,1.8272806985929,-92.4990986664325));
#300=CARTESIAN_POINT('',(1.8272806985929,1.0690286771472,-92.4990986664325));
#301=CARTESIAN_POINT('',(2.048,0.536165146212658,-92.4990986664325));
#302=CARTESIAN_POINT('',(2.048,-0.536165146212659,-92.4990986664325));
#303=CARTESIAN_POINT('',(2.048,-2.50807664465378E-16,-92.4990986664325));
#304=CARTESIAN_POINT('',(0.,0.,0.));
#305=CARTESIAN_POINT('',(0.,0.,-92.4990986664325));
#306=CARTESIAN_POINT('',(0.,0.,0.));
#307=CARTESIAN_POINT('',(-4.4,0.,0.));
#308=CARTESIAN_POINT('',(0.,5.,0.));
#309=CARTESIAN_POINT('',(0.,0.,-0.6));
#310=CARTESIAN_POINT('',(-5.,0.,-0.6));
#311=CARTESIAN_POINT('',(0.,0.,20.9080749503476));
#312=CARTESIAN_POINT('',(0.,0.,0.));
#313=CARTESIAN_POINT('',(0.,2.22044604925031E-16,-101.066));
#314=CARTESIAN_POINT('',(-2.04783886084818,2.22044604925031E-16,-101.066));
#315=CARTESIAN_POINT('',(0.,0.,-102.5));
#316=CARTESIAN_POINT('',(0.,0.,-101.066));
#317=CARTESIAN_POINT('',(0.,0.,-101.066));
#318=CARTESIAN_POINT('',(-2.04783886084819,0.,-101.066));
#319=CARTESIAN_POINT('',(0.,0.,-101.066));
#320=CARTESIAN_POINT('',(0.,2.22044604925031E-16,-105.));
#321=CARTESIAN_POINT('',(0.,2.22044604925031E-16,-102.5));
#322=MECHANICAL_DESIGN_GEOMETRIC_PRESENTATION_REPRESENTATION('',(#150,#151,
#152,#153,#154,#155,#156,#157,#158),#323);
#323=(
GEOMETRIC_REPRESENTATION_CONTEXT(3)
GLOBAL_UNCERTAINTY_ASSIGNED_CONTEXT((#324))
GLOBAL_UNIT_ASSIGNED_CONTEXT((#330,#326,#325))
REPRESENTATION_CONTEXT('TOOL','TOP_LEVEL_ASSEMBLY_PART')
);
#324=UNCERTAINTY_MEASURE_WITH_UNIT(LENGTH_MEASURE(0.0508),#330,
'DISTANCE_ACCURACY_VALUE','Maximum Tolerance applied to model');
#325=(
NAMED_UNIT(*)
SI_UNIT($,.STERADIAN.)
SOLID_ANGLE_UNIT()
);
#326=(
CONVERSION_BASED_UNIT('DEGREE',#328)
NAMED_UNIT(#327)
PLANE_ANGLE_UNIT()
);
#327=DIMENSIONAL_EXPONENTS(0.,0.,0.,0.,0.,0.,0.);
#328=PLANE_ANGLE_MEASURE_WITH_UNIT(PLANE_ANGLE_MEASURE(0.0174532925),#329);
#329=(
NAMED_UNIT(*)
PLANE_ANGLE_UNIT()
SI_UNIT($,.RADIAN.)
);
#330=(
LENGTH_UNIT()
NAMED_UNIT(*)
SI_UNIT(.MILLI.,.METRE.)
);
ENDSEC;
END-ISO-10303-21;
