ISO-10303-21;
HEADER;
/* Generated by software containing ST-Developer
 * from STEP Tools, Inc. (www.steptools.com) 
 */
/* OPTION: using custom schema-name function */

FILE_DESCRIPTION(
/* description */ (''),
/* implementation_level */ '2;1');

FILE_NAME(
/* name */ 'TOOL.STP',
/* time_stamp */ '2024-08-27T12:49:11+02:00',
/* author */ (''),
/* organization */ ('SMS'),
/* preprocessor_version */ 'ST-DEVELOPER v16.7',
/* originating_system */ 'SIEMENS PLM Software NX 12.0',
/* authorisation */ '');

FILE_SCHEMA (('AUTOMOTIVE_DESIGN { 1 0 10303 214 3 1 1 1 }'));
ENDSEC;

DATA;
#10=CONSTRUCTIVE_GEOMETRY_REPRESENTATION_RELATIONSHIP(
'supplemental geometry','',#26,#11);
#11=CONSTRUCTIVE_GEOMETRY_REPRESENTATION('supplemental geometry',(#179,
#180,#181),#301);
#12=GEOMETRICALLY_BOUNDED_WIREFRAME_SHAPE_REPRESENTATION('Tool-None',(#27),
#301);
#13=SHAPE_REPRESENTATION_RELATIONSHIP('None',
'relationship between Tool-None and Tool-None',#26,#15);
#14=SHAPE_REPRESENTATION_RELATIONSHIP('None',
'relationship between Tool-None and Tool-None',#26,#12);
#15=ADVANCED_BREP_SHAPE_REPRESENTATION('Tool-None',(#40,#41),#301);
#16=SHAPE_DEFINITION_REPRESENTATION(#17,#26);
#17=PRODUCT_DEFINITION_SHAPE('','',#18);
#18=PRODUCT_DEFINITION(' ','',#20,#19);
#19=PRODUCT_DEFINITION_CONTEXT('part definition',#25,'design');
#20=PRODUCT_DEFINITION_FORMATION_WITH_SPECIFIED_SOURCE(' ',' ',#22,
 .NOT_KNOWN.);
#21=PRODUCT_RELATED_PRODUCT_CATEGORY('part','',(#22));
#22=PRODUCT('Tool','Tool',' ',(#23));
#23=PRODUCT_CONTEXT(' ',#25,'mechanical');
#24=APPLICATION_PROTOCOL_DEFINITION('international standard',
'automotive_design',2010,#25);
#25=APPLICATION_CONTEXT(
'core data for automotive mechanical design processes');
#26=SHAPE_REPRESENTATION('Tool-None',(#178),#301);
#27=GEOMETRIC_CURVE_SET('None',(#242,#243,#244,#145));
#28=SPHERICAL_SURFACE('',#198,1.58750000000001);
#29=VERTEX_LOOP('',#121);
#30=SURFACE_STYLE_USAGE(.BOTH.,#32);
#31=SURFACE_STYLE_USAGE(.BOTH.,#33);
#32=SURFACE_SIDE_STYLE('',(#34));
#33=SURFACE_SIDE_STYLE('',(#35));
#34=SURFACE_STYLE_FILL_AREA(#36);
#35=SURFACE_STYLE_FILL_AREA(#37);
#36=FILL_AREA_STYLE('',(#38));
#37=FILL_AREA_STYLE('',(#39));
#38=FILL_AREA_STYLE_COLOUR('',#176);
#39=FILL_AREA_STYLE_COLOUR('',#177);
#40=MANIFOLD_SOLID_BREP('NOCUT',#42);
#41=MANIFOLD_SOLID_BREP('CUT',#43);
#42=CLOSED_SHELL('',(#55,#56,#57,#58,#59,#60,#61,#62));
#43=CLOSED_SHELL('',(#63,#64));
#44=PLANE('',#189);
#45=PLANE('',#195);
#46=PLANE('',#197);
#47=FACE_OUTER_BOUND('',#87,.T.);
#48=FACE_OUTER_BOUND('',#94,.T.);
#49=FACE_OUTER_BOUND('',#95,.T.);
#50=TOROIDAL_SURFACE('',#187,2.3005,1.);
#51=CYLINDRICAL_SURFACE('',#186,1.3005);
#52=CYLINDRICAL_SURFACE('',#191,3.175);
#53=CYLINDRICAL_SURFACE('',#194,1.29973997399481);
#54=B_SPLINE_CURVE_WITH_KNOTS('',3,(#271,#272,#273,#274,#275,#276,#277,
#278,#279,#280),.UNSPECIFIED.,.T.,.F.,(2,2,2,2,2,2,2),(-0.25,0.,0.25,0.5,
0.75,1.,1.25),.UNSPECIFIED.);
#55=ADVANCED_FACE('',(#67,#68),#65,.T.);
#56=ADVANCED_FACE('',(#69,#70),#51,.T.);
#57=ADVANCED_FACE('',(#71,#72),#50,.F.);
#58=ADVANCED_FACE('',(#47),#44,.F.);
#59=ADVANCED_FACE('',(#73,#74),#52,.T.);
#60=ADVANCED_FACE('',(#75,#76),#66,.T.);
#61=ADVANCED_FACE('',(#77,#78),#53,.T.);
#62=ADVANCED_FACE('',(#48),#45,.T.);
#63=ADVANCED_FACE('',(#49),#46,.T.);
#64=ADVANCED_FACE('',(#79,#80),#28,.T.);
#65=CONICAL_SURFACE('',#184,1.3005,13.2881902888217);
#66=CONICAL_SURFACE('',#192,2.775,45.);
#67=FACE_BOUND('',#81,.T.);
#68=FACE_BOUND('',#82,.T.);
#69=FACE_BOUND('',#83,.T.);
#70=FACE_BOUND('',#84,.T.);
#71=FACE_BOUND('',#85,.T.);
#72=FACE_BOUND('',#86,.T.);
#73=FACE_BOUND('',#88,.T.);
#74=FACE_BOUND('',#89,.T.);
#75=FACE_BOUND('',#90,.T.);
#76=FACE_BOUND('',#91,.T.);
#77=FACE_BOUND('',#92,.T.);
#78=FACE_BOUND('',#93,.T.);
#79=FACE_BOUND('',#29,.T.);
#80=FACE_BOUND('',#96,.T.);
#81=EDGE_LOOP('',(#97));
#82=EDGE_LOOP('',(#98));
#83=EDGE_LOOP('',(#99));
#84=EDGE_LOOP('',(#100));
#85=EDGE_LOOP('',(#101));
#86=EDGE_LOOP('',(#102));
#87=EDGE_LOOP('',(#103));
#88=EDGE_LOOP('',(#104));
#89=EDGE_LOOP('',(#105));
#90=EDGE_LOOP('',(#106));
#91=EDGE_LOOP('',(#107));
#92=EDGE_LOOP('',(#108));
#93=EDGE_LOOP('',(#109));
#94=EDGE_LOOP('',(#110));
#95=EDGE_LOOP('',(#111));
#96=EDGE_LOOP('',(#112));
#97=ORIENTED_EDGE('',*,*,#122,.T.);
#98=ORIENTED_EDGE('',*,*,#123,.F.);
#99=ORIENTED_EDGE('',*,*,#124,.T.);
#100=ORIENTED_EDGE('',*,*,#125,.T.);
#101=ORIENTED_EDGE('',*,*,#124,.F.);
#102=ORIENTED_EDGE('',*,*,#122,.F.);
#103=ORIENTED_EDGE('',*,*,#126,.T.);
#104=ORIENTED_EDGE('',*,*,#127,.T.);
#105=ORIENTED_EDGE('',*,*,#123,.T.);
#106=ORIENTED_EDGE('',*,*,#127,.F.);
#107=ORIENTED_EDGE('',*,*,#126,.F.);
#108=ORIENTED_EDGE('',*,*,#128,.F.);
#109=ORIENTED_EDGE('',*,*,#125,.F.);
#110=ORIENTED_EDGE('',*,*,#128,.T.);
#111=ORIENTED_EDGE('',*,*,#129,.T.);
#112=ORIENTED_EDGE('',*,*,#129,.F.);
#113=VERTEX_POINT('',#265);
#114=VERTEX_POINT('',#267);
#115=VERTEX_POINT('',#270);
#116=VERTEX_POINT('',#281);
#117=VERTEX_POINT('',#285);
#118=VERTEX_POINT('',#288);
#119=VERTEX_POINT('',#292);
#120=VERTEX_POINT('',#296);
#121=VERTEX_POINT('',#298);
#122=EDGE_CURVE('',#113,#113,#130,.T.);
#123=EDGE_CURVE('',#114,#114,#131,.T.);
#124=EDGE_CURVE('',#115,#115,#132,.T.);
#125=EDGE_CURVE('',#116,#116,#54,.T.);
#126=EDGE_CURVE('',#117,#117,#133,.T.);
#127=EDGE_CURVE('',#118,#118,#134,.T.);
#128=EDGE_CURVE('',#119,#119,#135,.T.);
#129=EDGE_CURVE('',#120,#120,#136,.T.);
#130=CIRCLE('',#182,1.32727373042507);
#131=CIRCLE('',#183,3.175);
#132=CIRCLE('',#185,1.3005);
#133=CIRCLE('',#188,2.775);
#134=CIRCLE('',#190,3.175);
#135=CIRCLE('',#193,1.29973997399481);
#136=CIRCLE('',#196,1.29973997399481);
#137=CURVE_STYLE('',#141,POSITIVE_LENGTH_MEASURE(0.18),#148);
#138=CURVE_STYLE('',#142,POSITIVE_LENGTH_MEASURE(0.13),#175);
#139=CURVE_STYLE('',#143,POSITIVE_LENGTH_MEASURE(0.18),#174);
#140=CURVE_STYLE('',#144,POSITIVE_LENGTH_MEASURE(0.18),#174);
#141=DRAUGHTING_PRE_DEFINED_CURVE_FONT('continuous');
#142=DRAUGHTING_PRE_DEFINED_CURVE_FONT('continuous');
#143=DRAUGHTING_PRE_DEFINED_CURVE_FONT('continuous');
#144=DRAUGHTING_PRE_DEFINED_CURVE_FONT('continuous');
#145=TRIMMED_CURVE('CUTTING PART LINE',#146,(PARAMETER_VALUE(0.)),(
PARAMETER_VALUE(1.)),.T.,.PARAMETER.);
#146=(
BOUNDED_CURVE()
B_SPLINE_CURVE(4,(#245,#246,#247,#248,#249,#250,#251,#252,#253,#254,#255,
#256,#257,#258,#259,#260),.UNSPECIFIED.,.T.,.F.)
B_SPLINE_CURVE_WITH_KNOTS((5,4,4,3,5),(0.,0.344059216511594,0.523005801988476,
0.761502900994238,1.),.UNSPECIFIED.)
CURVE()
GEOMETRIC_REPRESENTATION_ITEM()
RATIONAL_B_SPLINE_CURVE((0.539136644893016,0.539136644893016,0.539136644893016,
0.539136644893016,0.539136644893016,0.539136644893016,0.539136644893016,
0.539136644893016,0.539136644893016,0.539136644893016,0.531560695515477,
0.539136644893016,0.539136644893016,0.531560695515477,0.539136644893016,
0.539136644893016))
REPRESENTATION_ITEM('CUTTING PART LINE')
);
#147=DRAUGHTING_PRE_DEFINED_COLOUR('white');
#148=DRAUGHTING_PRE_DEFINED_COLOUR('blue');
#149=PRESENTATION_LAYER_ASSIGNMENT('1','Layer 1',(#242,#243,#244,#145,#179,
#180,#181,#40,#41));
#150=STYLED_ITEM('',(#159),#242);
#151=STYLED_ITEM('',(#160),#243);
#152=STYLED_ITEM('',(#161),#244);
#153=STYLED_ITEM('',(#162),#145);
#154=STYLED_ITEM('',(#163),#179);
#155=STYLED_ITEM('',(#164),#180);
#156=STYLED_ITEM('',(#165),#181);
#157=STYLED_ITEM('',(#166),#40);
#158=STYLED_ITEM('',(#167),#41);
#159=PRESENTATION_STYLE_ASSIGNMENT((#168));
#160=PRESENTATION_STYLE_ASSIGNMENT((#169));
#161=PRESENTATION_STYLE_ASSIGNMENT((#170));
#162=PRESENTATION_STYLE_ASSIGNMENT((#137));
#163=PRESENTATION_STYLE_ASSIGNMENT((#138));
#164=PRESENTATION_STYLE_ASSIGNMENT((#139));
#165=PRESENTATION_STYLE_ASSIGNMENT((#140));
#166=PRESENTATION_STYLE_ASSIGNMENT((#30));
#167=PRESENTATION_STYLE_ASSIGNMENT((#31));
#168=POINT_STYLE('',#171,POSITIVE_LENGTH_MEASURE(3.),#174);
#169=POINT_STYLE('',#172,POSITIVE_LENGTH_MEASURE(3.),#147);
#170=POINT_STYLE('',#173,POSITIVE_LENGTH_MEASURE(3.),#174);
#171=PRE_DEFINED_POINT_MARKER_SYMBOL('plus');
#172=PRE_DEFINED_POINT_MARKER_SYMBOL('plus');
#173=PRE_DEFINED_POINT_MARKER_SYMBOL('plus');
#174=COLOUR_RGB('Medium Maroon',0.6,0.4,0.4);
#175=COLOUR_RGB('Silver Gray',0.6,0.6,0.6);
#176=COLOUR_RGB('TLS_NOCUT',0.498023956664378,0.498023956664378,0.498023956664378);
#177=COLOUR_RGB('TLS_CUT',0.8,0.8,0.8);
#178=AXIS2_PLACEMENT_3D('',#241,#199,#200);
#179=AXIS2_PLACEMENT_3D('PCS',#261,#201,#202);
#180=AXIS2_PLACEMENT_3D('MCS',#262,#203,#204);
#181=AXIS2_PLACEMENT_3D('CIP',#263,#205,#206);
#182=AXIS2_PLACEMENT_3D('',#264,#207,#208);
#183=AXIS2_PLACEMENT_3D('',#266,#209,#210);
#184=AXIS2_PLACEMENT_3D('',#268,#211,#212);
#185=AXIS2_PLACEMENT_3D('',#269,#213,#214);
#186=AXIS2_PLACEMENT_3D('',#282,#215,#216);
#187=AXIS2_PLACEMENT_3D('',#283,#217,#218);
#188=AXIS2_PLACEMENT_3D('',#284,#219,#220);
#189=AXIS2_PLACEMENT_3D('',#286,#221,#222);
#190=AXIS2_PLACEMENT_3D('',#287,#223,#224);
#191=AXIS2_PLACEMENT_3D('',#289,#225,#226);
#192=AXIS2_PLACEMENT_3D('',#290,#227,#228);
#193=AXIS2_PLACEMENT_3D('',#291,#229,#230);
#194=AXIS2_PLACEMENT_3D('',#293,#231,#232);
#195=AXIS2_PLACEMENT_3D('',#294,#233,#234);
#196=AXIS2_PLACEMENT_3D('',#295,#235,#236);
#197=AXIS2_PLACEMENT_3D('',#297,#237,#238);
#198=AXIS2_PLACEMENT_3D('',#299,#239,#240);
#199=DIRECTION('',(0.,0.,1.));
#200=DIRECTION('',(1.,0.,0.));
#201=DIRECTION('',(0.,0.,1.));
#202=DIRECTION('',(1.,0.,0.));
#203=DIRECTION('',(0.,0.,1.));
#204=DIRECTION('',(1.,0.,0.));
#205=DIRECTION('',(0.,0.,1.));
#206=DIRECTION('',(1.,0.,0.));
#207=DIRECTION('',(0.,0.,1.));
#208=DIRECTION('',(1.,0.,0.));
#209=DIRECTION('',(0.,0.,1.));
#210=DIRECTION('',(1.,0.,0.));
#211=DIRECTION('',(0.,0.,1.));
#212=DIRECTION('',(1.,0.,1.16878939048377E-16));
#213=DIRECTION('',(0.,0.,-1.));
#214=DIRECTION('',(1.,0.,0.));
#215=DIRECTION('',(0.,0.,1.));
#216=DIRECTION('',(1.,0.,0.));
#217=DIRECTION('',(0.,0.,1.));
#218=DIRECTION('',(1.,0.,0.));
#219=DIRECTION('',(0.,0.,1.));
#220=DIRECTION('',(-1.,0.,0.));
#221=DIRECTION('',(0.,0.,-1.));
#222=DIRECTION('',(-1.,0.,0.));
#223=DIRECTION('',(0.,0.,-1.));
#224=DIRECTION('',(-1.,0.,0.));
#225=DIRECTION('',(0.,0.,1.));
#226=DIRECTION('',(1.,0.,0.));
#227=DIRECTION('',(0.,0.,-1.));
#228=DIRECTION('',(-1.,0.,0.));
#229=DIRECTION('',(0.,0.,-1.));
#230=DIRECTION('',(-1.,0.,0.));
#231=DIRECTION('',(0.,0.,-1.));
#232=DIRECTION('',(-1.,0.,0.));
#233=DIRECTION('',(0.,0.,-1.));
#234=DIRECTION('',(-1.,0.,0.));
#235=DIRECTION('',(0.,0.,1.));
#236=DIRECTION('',(-1.,0.,0.));
#237=DIRECTION('',(0.,0.,1.));
#238=DIRECTION('',(1.,0.,0.));
#239=DIRECTION('',(0.,-6.12323399573677E-17,-1.));
#240=DIRECTION('',(0.,-1.,0.));
#241=CARTESIAN_POINT('',(0.,0.,0.));
#242=CARTESIAN_POINT('',(0.,0.,-36.));
#243=CARTESIAN_POINT('CRP',(-1.5875,0.,-76.2));
#244=CARTESIAN_POINT('CIP_DCSYS',(0.,0.,-76.2));
#245=CARTESIAN_POINT('',(0.,0.,-76.2));
#246=CARTESIAN_POINT('',(0.,0.,-75.57525));
#247=CARTESIAN_POINT('',(0.,0.,-74.9505));
#248=CARTESIAN_POINT('',(0.,0.,-74.32575));
#249=CARTESIAN_POINT('',(0.,0.,-73.701));
#250=CARTESIAN_POINT('',(-0.324934993498702,0.,-73.701));
#251=CARTESIAN_POINT('',(-0.649869986997405,0.,-73.701));
#252=CARTESIAN_POINT('',(-0.974804980496107,0.,-73.701));
#253=CARTESIAN_POINT('',(-1.29973997399481,0.,-73.701));
#254=CARTESIAN_POINT('',(-1.53624186596911,0.,-74.0382363828024));
#255=CARTESIAN_POINT('',(-1.68437142237771,0.,-74.5011758816089));
#256=CARTESIAN_POINT('',(-1.59845776201977,0.,-74.9795838539514));
#257=CARTESIAN_POINT('',(-1.2183356276345,0.,-75.7104417430946));
#258=CARTESIAN_POINT('',(-0.875976154176147,0.,-76.0554712142566));
#259=CARTESIAN_POINT('',(-0.411899894140665,0.,-76.2));
#260=CARTESIAN_POINT('',(1.94412679364643E-16,0.,-76.2));
#261=CARTESIAN_POINT('',(0.,0.,0.));
#262=CARTESIAN_POINT('',(0.,0.,-36.));
#263=CARTESIAN_POINT('',(0.,0.,-76.2));
#264=CARTESIAN_POINT('',(0.,0.,-64.8539213574455));
#265=CARTESIAN_POINT('',(1.32727373042507,0.,-64.8539213574455));
#266=CARTESIAN_POINT('',(0.,0.,-57.0302865739745));
#267=CARTESIAN_POINT('',(3.175,0.,-57.0302865739745));
#268=CARTESIAN_POINT('',(0.,0.,-64.9672865739746));
#269=CARTESIAN_POINT('',(0.,0.,-65.0837704997307));
#270=CARTESIAN_POINT('',(1.3005,0.,-65.0837704997307));
#271=CARTESIAN_POINT('',(1.3005,-0.680940207665587,-73.5008478515831));
#272=CARTESIAN_POINT('',(1.3005,0.680940207665587,-73.5008478515831));
#273=CARTESIAN_POINT('',(0.680940207665587,1.3005,-73.5008478515831));
#274=CARTESIAN_POINT('',(-0.680940207665587,1.3005,-73.5008478515831));
#275=CARTESIAN_POINT('',(-1.3005,0.680940207665587,-73.5008478515831));
#276=CARTESIAN_POINT('',(-1.3005,-0.680940207665587,-73.5008478515831));
#277=CARTESIAN_POINT('',(-0.680940207665587,-1.3005,-73.5008478515831));
#278=CARTESIAN_POINT('',(0.680940207665587,-1.3005,-73.5008478515831));
#279=CARTESIAN_POINT('',(1.3005,-0.680940207665587,-73.5008478515831));
#280=CARTESIAN_POINT('',(1.3005,0.680940207665587,-73.5008478515831));
#281=CARTESIAN_POINT('',(1.3001199869974,7.94930436023779E-17,-73.5008478515831));
#282=CARTESIAN_POINT('',(0.,0.,0.));
#283=CARTESIAN_POINT('',(0.,0.,-65.0837704997307));
#284=CARTESIAN_POINT('',(0.,0.,0.));
#285=CARTESIAN_POINT('',(-2.775,0.,0.));
#286=CARTESIAN_POINT('',(0.,3.17500000000001,0.));
#287=CARTESIAN_POINT('',(0.,0.,-0.400000000000001));
#288=CARTESIAN_POINT('',(-3.175,0.,-0.400000000000001));
#289=CARTESIAN_POINT('',(0.,0.,20.9080749503476));
#290=CARTESIAN_POINT('',(0.,0.,0.));
#291=CARTESIAN_POINT('',(0.,2.38697950294409E-15,-73.701));
#292=CARTESIAN_POINT('',(-1.29973997399481,2.38697950294409E-15,-73.701));
#293=CARTESIAN_POINT('',(0.,0.,-74.6125));
#294=CARTESIAN_POINT('',(0.,0.,-73.701));
#295=CARTESIAN_POINT('',(0.,0.,-73.701));
#296=CARTESIAN_POINT('',(-1.29973997399481,0.,-73.701));
#297=CARTESIAN_POINT('',(0.,0.,-73.701));
#298=CARTESIAN_POINT('',(0.,2.38697950294409E-15,-76.2));
#299=CARTESIAN_POINT('',(0.,2.38697950294409E-15,-74.6125));
#300=MECHANICAL_DESIGN_GEOMETRIC_PRESENTATION_REPRESENTATION('',(#150,#151,
#152,#153,#154,#155,#156,#157,#158),#301);
#301=(
GEOMETRIC_REPRESENTATION_CONTEXT(3)
GLOBAL_UNCERTAINTY_ASSIGNED_CONTEXT((#302))
GLOBAL_UNIT_ASSIGNED_CONTEXT((#308,#304,#303))
REPRESENTATION_CONTEXT('TOOL','TOP_LEVEL_ASSEMBLY_PART')
);
#302=UNCERTAINTY_MEASURE_WITH_UNIT(LENGTH_MEASURE(0.0508),#308,
'DISTANCE_ACCURACY_VALUE','Maximum Tolerance applied to model');
#303=(
NAMED_UNIT(*)
SI_UNIT($,.STERADIAN.)
SOLID_ANGLE_UNIT()
);
#304=(
CONVERSION_BASED_UNIT('DEGREE',#306)
NAMED_UNIT(#305)
PLANE_ANGLE_UNIT()
);
#305=DIMENSIONAL_EXPONENTS(0.,0.,0.,0.,0.,0.,0.);
#306=PLANE_ANGLE_MEASURE_WITH_UNIT(PLANE_ANGLE_MEASURE(0.0174532925),#307);
#307=(
NAMED_UNIT(*)
PLANE_ANGLE_UNIT()
SI_UNIT($,.RADIAN.)
);
#308=(
LENGTH_UNIT()
NAMED_UNIT(*)
SI_UNIT(.MILLI.,.METRE.)
);
ENDSEC;
END-ISO-10303-21;
