ISO-10303-21;
HEADER;
/* Generated by software containing ST-Developer
 * from STEP Tools, Inc. (www.steptools.com) 
 */
/* OPTION: using custom schema-name function */

FILE_DESCRIPTION(
/* description */ (''),
/* implementation_level */ '2;1');

FILE_NAME(
/* name */ 'TOOL.STP',
/* time_stamp */ '2024-08-27T12:48:58+02:00',
/* author */ (''),
/* organization */ ('SMS'),
/* preprocessor_version */ 'ST-DEVELOPER v16.7',
/* originating_system */ 'SIEMENS PLM Software NX 12.0',
/* authorisation */ '');

FILE_SCHEMA (('AUTOMOTIVE_DESIGN { 1 0 10303 214 3 1 1 1 }'));
ENDSEC;

DATA;
#10=CONSTRUCTIVE_GEOMETRY_REPRESENTATION_RELATIONSHIP(
'supplemental geometry','',#26,#11);
#11=CONSTRUCTIVE_GEOMETRY_REPRESENTATION('supplemental geometry',(#179,
#180,#181),#307);
#12=GEOMETRICALLY_BOUNDED_WIREFRAME_SHAPE_REPRESENTATION('Tool-None',(#27),
#307);
#13=SHAPE_REPRESENTATION_RELATIONSHIP('None',
'relationship between Tool-None and Tool-None',#26,#15);
#14=SHAPE_REPRESENTATION_RELATIONSHIP('None',
'relationship between Tool-None and Tool-None',#26,#12);
#15=ADVANCED_BREP_SHAPE_REPRESENTATION('Tool-None',(#40,#41),#307);
#16=SHAPE_DEFINITION_REPRESENTATION(#17,#26);
#17=PRODUCT_DEFINITION_SHAPE('','',#18);
#18=PRODUCT_DEFINITION(' ','',#20,#19);
#19=PRODUCT_DEFINITION_CONTEXT('part definition',#25,'design');
#20=PRODUCT_DEFINITION_FORMATION_WITH_SPECIFIED_SOURCE(' ',' ',#22,
 .NOT_KNOWN.);
#21=PRODUCT_RELATED_PRODUCT_CATEGORY('part','',(#22));
#22=PRODUCT('Tool','Tool',' ',(#23));
#23=PRODUCT_CONTEXT(' ',#25,'mechanical');
#24=APPLICATION_PROTOCOL_DEFINITION('international standard',
'automotive_design',2010,#25);
#25=APPLICATION_CONTEXT(
'core data for automotive mechanical design processes');
#26=SHAPE_REPRESENTATION('Tool-None',(#178),#307);
#27=GEOMETRIC_CURVE_SET('None',(#239,#240,#241,#145));
#28=SPHERICAL_SURFACE('',#197,2.);
#29=VERTEX_LOOP('',#122);
#30=SURFACE_STYLE_USAGE(.BOTH.,#32);
#31=SURFACE_STYLE_USAGE(.BOTH.,#33);
#32=SURFACE_SIDE_STYLE('',(#34));
#33=SURFACE_SIDE_STYLE('',(#35));
#34=SURFACE_STYLE_FILL_AREA(#36);
#35=SURFACE_STYLE_FILL_AREA(#37);
#36=FILL_AREA_STYLE('',(#38));
#37=FILL_AREA_STYLE('',(#39));
#38=FILL_AREA_STYLE_COLOUR('',#176);
#39=FILL_AREA_STYLE_COLOUR('',#177);
#40=MANIFOLD_SOLID_BREP('NOCUT',#42);
#41=MANIFOLD_SOLID_BREP('CUT',#43);
#42=CLOSED_SHELL('',(#56,#57,#58,#59,#60,#61,#62,#63));
#43=CLOSED_SHELL('',(#64,#65));
#44=PLANE('',#188);
#45=PLANE('',#194);
#46=PLANE('',#196);
#47=FACE_OUTER_BOUND('',#88,.T.);
#48=FACE_OUTER_BOUND('',#95,.T.);
#49=FACE_OUTER_BOUND('',#96,.T.);
#50=TOROIDAL_SURFACE('',#186,2.6385,1.);
#51=CYLINDRICAL_SURFACE('',#185,1.6385);
#52=CYLINDRICAL_SURFACE('',#190,4.);
#53=CYLINDRICAL_SURFACE('',#193,1.63841112056774);
#54=B_SPLINE_CURVE_WITH_KNOTS('',3,(#266,#267,#268,#269,#270,#271,#272,
#273,#274,#275),.UNSPECIFIED.,.T.,.F.,(2,2,2,2,2,2,2),(-0.25,0.,0.25,0.5,
0.75,1.,1.25),.UNSPECIFIED.);
#55=B_SPLINE_CURVE_WITH_KNOTS('',3,(#277,#278,#279,#280,#281,#282,#283,
#284,#285,#286),.UNSPECIFIED.,.T.,.F.,(2,2,2,2,2,2,2),(-0.25,0.,0.25,0.5,
0.75,1.,1.25),.UNSPECIFIED.);
#56=ADVANCED_FACE('',(#68,#69),#66,.T.);
#57=ADVANCED_FACE('',(#70,#71),#51,.T.);
#58=ADVANCED_FACE('',(#72,#73),#50,.F.);
#59=ADVANCED_FACE('',(#47),#44,.F.);
#60=ADVANCED_FACE('',(#74,#75),#52,.T.);
#61=ADVANCED_FACE('',(#76,#77),#67,.T.);
#62=ADVANCED_FACE('',(#78,#79),#53,.T.);
#63=ADVANCED_FACE('',(#48),#45,.T.);
#64=ADVANCED_FACE('',(#49),#46,.T.);
#65=ADVANCED_FACE('',(#80,#81),#28,.T.);
#66=CONICAL_SURFACE('',#184,1.6385,2.70407022896424);
#67=CONICAL_SURFACE('',#191,3.4,45.);
#68=FACE_BOUND('',#82,.T.);
#69=FACE_BOUND('',#83,.T.);
#70=FACE_BOUND('',#84,.T.);
#71=FACE_BOUND('',#85,.T.);
#72=FACE_BOUND('',#86,.T.);
#73=FACE_BOUND('',#87,.T.);
#74=FACE_BOUND('',#89,.T.);
#75=FACE_BOUND('',#90,.T.);
#76=FACE_BOUND('',#91,.T.);
#77=FACE_BOUND('',#92,.T.);
#78=FACE_BOUND('',#93,.T.);
#79=FACE_BOUND('',#94,.T.);
#80=FACE_BOUND('',#29,.T.);
#81=FACE_BOUND('',#97,.T.);
#82=EDGE_LOOP('',(#98));
#83=EDGE_LOOP('',(#99));
#84=EDGE_LOOP('',(#100));
#85=EDGE_LOOP('',(#101));
#86=EDGE_LOOP('',(#102));
#87=EDGE_LOOP('',(#103));
#88=EDGE_LOOP('',(#104));
#89=EDGE_LOOP('',(#105));
#90=EDGE_LOOP('',(#106));
#91=EDGE_LOOP('',(#107));
#92=EDGE_LOOP('',(#108));
#93=EDGE_LOOP('',(#109));
#94=EDGE_LOOP('',(#110));
#95=EDGE_LOOP('',(#111));
#96=EDGE_LOOP('',(#112));
#97=EDGE_LOOP('',(#113));
#98=ORIENTED_EDGE('',*,*,#123,.T.);
#99=ORIENTED_EDGE('',*,*,#124,.F.);
#100=ORIENTED_EDGE('',*,*,#125,.T.);
#101=ORIENTED_EDGE('',*,*,#126,.T.);
#102=ORIENTED_EDGE('',*,*,#126,.F.);
#103=ORIENTED_EDGE('',*,*,#123,.F.);
#104=ORIENTED_EDGE('',*,*,#127,.T.);
#105=ORIENTED_EDGE('',*,*,#128,.T.);
#106=ORIENTED_EDGE('',*,*,#124,.T.);
#107=ORIENTED_EDGE('',*,*,#128,.F.);
#108=ORIENTED_EDGE('',*,*,#127,.F.);
#109=ORIENTED_EDGE('',*,*,#129,.F.);
#110=ORIENTED_EDGE('',*,*,#125,.F.);
#111=ORIENTED_EDGE('',*,*,#129,.T.);
#112=ORIENTED_EDGE('',*,*,#130,.T.);
#113=ORIENTED_EDGE('',*,*,#130,.F.);
#114=VERTEX_POINT('',#262);
#115=VERTEX_POINT('',#264);
#116=VERTEX_POINT('',#276);
#117=VERTEX_POINT('',#287);
#118=VERTEX_POINT('',#291);
#119=VERTEX_POINT('',#294);
#120=VERTEX_POINT('',#298);
#121=VERTEX_POINT('',#302);
#122=VERTEX_POINT('',#304);
#123=EDGE_CURVE('',#114,#114,#131,.T.);
#124=EDGE_CURVE('',#115,#115,#132,.T.);
#125=EDGE_CURVE('',#116,#116,#54,.T.);
#126=EDGE_CURVE('',#117,#117,#55,.T.);
#127=EDGE_CURVE('',#118,#118,#133,.T.);
#128=EDGE_CURVE('',#119,#119,#134,.T.);
#129=EDGE_CURVE('',#120,#120,#135,.T.);
#130=EDGE_CURVE('',#121,#121,#136,.T.);
#131=CIRCLE('',#182,1.63961347394878);
#132=CIRCLE('',#183,4.);
#133=CIRCLE('',#187,3.4);
#134=CIRCLE('',#189,4.);
#135=CIRCLE('',#192,1.63841112056772);
#136=CIRCLE('',#195,1.63841112056773);
#137=CURVE_STYLE('',#141,POSITIVE_LENGTH_MEASURE(0.18),#148);
#138=CURVE_STYLE('',#142,POSITIVE_LENGTH_MEASURE(0.13),#175);
#139=CURVE_STYLE('',#143,POSITIVE_LENGTH_MEASURE(0.18),#174);
#140=CURVE_STYLE('',#144,POSITIVE_LENGTH_MEASURE(0.18),#174);
#141=DRAUGHTING_PRE_DEFINED_CURVE_FONT('continuous');
#142=DRAUGHTING_PRE_DEFINED_CURVE_FONT('continuous');
#143=DRAUGHTING_PRE_DEFINED_CURVE_FONT('continuous');
#144=DRAUGHTING_PRE_DEFINED_CURVE_FONT('continuous');
#145=TRIMMED_CURVE('CUTTING PART LINE',#146,(PARAMETER_VALUE(0.)),(
PARAMETER_VALUE(1.)),.T.,.PARAMETER.);
#146=(
BOUNDED_CURVE()
B_SPLINE_CURVE(4,(#242,#243,#244,#245,#246,#247,#248,#249,#250,#251,#252,
#253,#254,#255,#256,#257),.UNSPECIFIED.,.T.,.F.)
B_SPLINE_CURVE_WITH_KNOTS((5,4,3,4,5),(0.,0.343989027122815,0.582449637907134,
0.820910248691453,1.),.UNSPECIFIED.)
CURVE()
GEOMETRIC_REPRESENTATION_ITEM()
RATIONAL_B_SPLINE_CURVE((1.,1.,1.,1.,1.,1.,0.9859686307196,1.,1.,0.9859686307196,
1.,1.,1.,1.,1.,1.))
REPRESENTATION_ITEM('CUTTING PART LINE')
);
#147=DRAUGHTING_PRE_DEFINED_COLOUR('white');
#148=DRAUGHTING_PRE_DEFINED_COLOUR('blue');
#149=PRESENTATION_LAYER_ASSIGNMENT('1','Layer 1',(#239,#240,#241,#145,#179,
#180,#181,#40,#41));
#150=STYLED_ITEM('',(#159),#239);
#151=STYLED_ITEM('',(#160),#240);
#152=STYLED_ITEM('',(#161),#241);
#153=STYLED_ITEM('',(#162),#145);
#154=STYLED_ITEM('',(#163),#179);
#155=STYLED_ITEM('',(#164),#180);
#156=STYLED_ITEM('',(#165),#181);
#157=STYLED_ITEM('',(#166),#40);
#158=STYLED_ITEM('',(#167),#41);
#159=PRESENTATION_STYLE_ASSIGNMENT((#168));
#160=PRESENTATION_STYLE_ASSIGNMENT((#169));
#161=PRESENTATION_STYLE_ASSIGNMENT((#170));
#162=PRESENTATION_STYLE_ASSIGNMENT((#137));
#163=PRESENTATION_STYLE_ASSIGNMENT((#138));
#164=PRESENTATION_STYLE_ASSIGNMENT((#139));
#165=PRESENTATION_STYLE_ASSIGNMENT((#140));
#166=PRESENTATION_STYLE_ASSIGNMENT((#30));
#167=PRESENTATION_STYLE_ASSIGNMENT((#31));
#168=POINT_STYLE('',#171,POSITIVE_LENGTH_MEASURE(3.),#174);
#169=POINT_STYLE('',#172,POSITIVE_LENGTH_MEASURE(3.),#147);
#170=POINT_STYLE('',#173,POSITIVE_LENGTH_MEASURE(3.),#174);
#171=PRE_DEFINED_POINT_MARKER_SYMBOL('plus');
#172=PRE_DEFINED_POINT_MARKER_SYMBOL('plus');
#173=PRE_DEFINED_POINT_MARKER_SYMBOL('plus');
#174=COLOUR_RGB('Medium Maroon',0.6,0.4,0.4);
#175=COLOUR_RGB('Silver Gray',0.6,0.6,0.6);
#176=COLOUR_RGB('TLS_NOCUT',0.498023956664378,0.498023956664378,0.498023956664378);
#177=COLOUR_RGB('TLS_CUT',0.8,0.8,0.8);
#178=AXIS2_PLACEMENT_3D('',#238,#198,#199);
#179=AXIS2_PLACEMENT_3D('PCS',#258,#200,#201);
#180=AXIS2_PLACEMENT_3D('MCS',#259,#202,#203);
#181=AXIS2_PLACEMENT_3D('CIP',#260,#204,#205);
#182=AXIS2_PLACEMENT_3D('',#261,#206,#207);
#183=AXIS2_PLACEMENT_3D('',#263,#208,#209);
#184=AXIS2_PLACEMENT_3D('',#265,#210,#211);
#185=AXIS2_PLACEMENT_3D('',#288,#212,#213);
#186=AXIS2_PLACEMENT_3D('',#289,#214,#215);
#187=AXIS2_PLACEMENT_3D('',#290,#216,#217);
#188=AXIS2_PLACEMENT_3D('',#292,#218,#219);
#189=AXIS2_PLACEMENT_3D('',#293,#220,#221);
#190=AXIS2_PLACEMENT_3D('',#295,#222,#223);
#191=AXIS2_PLACEMENT_3D('',#296,#224,#225);
#192=AXIS2_PLACEMENT_3D('',#297,#226,#227);
#193=AXIS2_PLACEMENT_3D('',#299,#228,#229);
#194=AXIS2_PLACEMENT_3D('',#300,#230,#231);
#195=AXIS2_PLACEMENT_3D('',#301,#232,#233);
#196=AXIS2_PLACEMENT_3D('',#303,#234,#235);
#197=AXIS2_PLACEMENT_3D('',#305,#236,#237);
#198=DIRECTION('',(0.,0.,1.));
#199=DIRECTION('',(1.,0.,0.));
#200=DIRECTION('',(0.,0.,1.));
#201=DIRECTION('',(1.,0.,0.));
#202=DIRECTION('',(0.,0.,1.));
#203=DIRECTION('',(1.,0.,0.));
#204=DIRECTION('',(0.,0.,1.));
#205=DIRECTION('',(1.,0.,0.));
#206=DIRECTION('',(0.,0.,1.));
#207=DIRECTION('',(1.,0.,0.));
#208=DIRECTION('',(0.,0.,1.));
#209=DIRECTION('',(1.,0.,0.));
#210=DIRECTION('',(0.,0.,1.));
#211=DIRECTION('',(1.,0.,0.));
#212=DIRECTION('',(0.,0.,1.));
#213=DIRECTION('',(1.,0.,0.));
#214=DIRECTION('',(0.,0.,1.));
#215=DIRECTION('',(1.,0.,0.));
#216=DIRECTION('',(0.,0.,1.));
#217=DIRECTION('',(-1.,0.,0.));
#218=DIRECTION('',(0.,0.,-1.));
#219=DIRECTION('',(-1.,0.,0.));
#220=DIRECTION('',(0.,0.,-1.));
#221=DIRECTION('',(-1.,0.,0.));
#222=DIRECTION('',(0.,0.,1.));
#223=DIRECTION('',(1.,0.,0.));
#224=DIRECTION('',(0.,0.,-1.));
#225=DIRECTION('',(-1.,0.,0.));
#226=DIRECTION('',(0.,0.,-1.));
#227=DIRECTION('',(-1.,0.,0.));
#228=DIRECTION('',(0.,0.,-1.));
#229=DIRECTION('',(-1.,0.,0.));
#230=DIRECTION('',(0.,0.,-1.));
#231=DIRECTION('',(-1.,0.,0.));
#232=DIRECTION('',(0.,0.,1.));
#233=DIRECTION('',(-1.,0.,0.));
#234=DIRECTION('',(0.,0.,1.));
#235=DIRECTION('',(1.,0.,0.));
#236=DIRECTION('',(0.,-6.12323399573677E-17,-1.));
#237=DIRECTION('',(0.,-1.,0.));
#238=CARTESIAN_POINT('',(0.,0.,0.));
#239=CARTESIAN_POINT('',(0.,0.,-36.));
#240=CARTESIAN_POINT('CRP',(-2.,0.,-100.));
#241=CARTESIAN_POINT('CIP_DCSYS',(0.,0.,-100.));
#242=CARTESIAN_POINT('',(0.,0.,-96.853));
#243=CARTESIAN_POINT('',(0.,0.,-97.63975));
#244=CARTESIAN_POINT('',(0.,0.,-98.4265));
#245=CARTESIAN_POINT('',(0.,0.,-99.21325));
#246=CARTESIAN_POINT('',(1.22464679914735E-16,0.,-100.));
#247=CARTESIAN_POINT('',(-0.518753315381814,0.,-100.));
#248=CARTESIAN_POINT('',(-1.10315789357212,0.,-99.8180435672866));
#249=CARTESIAN_POINT('',(-1.53442348814478,0.,-99.3837086258491));
#250=CARTESIAN_POINT('',(-2.01353367055937,0.,-98.4634513563939));
#251=CARTESIAN_POINT('',(-2.12201245112308,0.,-97.8610650944465));
#252=CARTESIAN_POINT('',(-1.9359161469392,0.,-97.2779656003765));
#253=CARTESIAN_POINT('',(-1.63841112056773,0.,-96.853));
#254=CARTESIAN_POINT('',(-1.22880834042579,0.,-96.853));
#255=CARTESIAN_POINT('',(-0.819205560283861,0.,-96.853));
#256=CARTESIAN_POINT('',(-0.409602780141931,0.,-96.853));
#257=CARTESIAN_POINT('',(0.,0.,-96.853));
#258=CARTESIAN_POINT('',(0.,0.,0.));
#259=CARTESIAN_POINT('',(0.,0.,-36.));
#260=CARTESIAN_POINT('',(0.,0.,-100.));
#261=CARTESIAN_POINT('',(0.,0.,-89.9520634416535));
#262=CARTESIAN_POINT('',(1.63961347394878,0.,-89.9520634416535));
#263=CARTESIAN_POINT('',(0.,0.,-39.9756390069461));
#264=CARTESIAN_POINT('',(4.,0.,-39.9756390069461));
#265=CARTESIAN_POINT('',(0.,0.,-89.9756390069463));
#266=CARTESIAN_POINT('',(1.6385,-0.857916593817814,-96.6527178244218));
#267=CARTESIAN_POINT('',(1.6385,0.857916593817815,-96.6527178244218));
#268=CARTESIAN_POINT('',(0.857916593817814,1.6385,-96.6527178244218));
#269=CARTESIAN_POINT('',(-0.857916593817814,1.6385,-96.6527178244218));
#270=CARTESIAN_POINT('',(-1.6385,0.857916593817814,-96.6527178244218));
#271=CARTESIAN_POINT('',(-1.6385,-0.857916593817814,-96.6527178244218));
#272=CARTESIAN_POINT('',(-0.857916593817815,-1.6385,-96.6527178244218));
#273=CARTESIAN_POINT('',(0.857916593817814,-1.6385,-96.6527178244218));
#274=CARTESIAN_POINT('',(1.6385,-0.857916593817814,-96.6527178244218));
#275=CARTESIAN_POINT('',(1.6385,0.857916593817815,-96.6527178244218));
#276=CARTESIAN_POINT('',(1.63845556028387,-1.00334631315759E-16,-96.6527178244218));
#277=CARTESIAN_POINT('',(1.6385,0.857916593817814,-89.9992408522789));
#278=CARTESIAN_POINT('',(1.6385,-0.857916593817815,-89.9992408522789));
#279=CARTESIAN_POINT('',(0.857916593817814,-1.6385,-89.9992408522788));
#280=CARTESIAN_POINT('',(-0.857916593817814,-1.6385,-89.9992408522788));
#281=CARTESIAN_POINT('',(-1.6385,-0.857916593817814,-89.9992408522789));
#282=CARTESIAN_POINT('',(-1.6385,0.857916593817815,-89.9992408522788));
#283=CARTESIAN_POINT('',(-0.857916593817814,1.6385,-89.9992408522789));
#284=CARTESIAN_POINT('',(0.857916593817814,1.6385,-89.9992408522788));
#285=CARTESIAN_POINT('',(1.6385,0.857916593817814,-89.9992408522789));
#286=CARTESIAN_POINT('',(1.6385,-0.857916593817815,-89.9992408522789));
#287=CARTESIAN_POINT('',(1.6385,-2.00658378040294E-16,-89.9992408522789));
#288=CARTESIAN_POINT('',(0.,0.,0.));
#289=CARTESIAN_POINT('',(0.,0.,-89.9992408522789));
#290=CARTESIAN_POINT('',(0.,0.,0.));
#291=CARTESIAN_POINT('',(-3.4,0.,0.));
#292=CARTESIAN_POINT('',(0.,4.00000000000001,0.));
#293=CARTESIAN_POINT('',(0.,0.,-0.6));
#294=CARTESIAN_POINT('',(-4.,0.,-0.6));
#295=CARTESIAN_POINT('',(0.,0.,20.9080749503476));
#296=CARTESIAN_POINT('',(0.,0.,0.));
#297=CARTESIAN_POINT('',(0.,1.11022302462516E-16,-96.853));
#298=CARTESIAN_POINT('',(-1.63841112056772,1.11022302462516E-16,-96.853));
#299=CARTESIAN_POINT('',(0.,0.,-98.));
#300=CARTESIAN_POINT('',(0.,0.,-96.853));
#301=CARTESIAN_POINT('',(0.,0.,-96.853));
#302=CARTESIAN_POINT('',(-1.63841112056773,0.,-96.853));
#303=CARTESIAN_POINT('',(0.,0.,-96.853));
#304=CARTESIAN_POINT('',(0.,1.11022302462516E-16,-100.));
#305=CARTESIAN_POINT('',(0.,1.11022302462516E-16,-98.));
#306=MECHANICAL_DESIGN_GEOMETRIC_PRESENTATION_REPRESENTATION('',(#150,#151,
#152,#153,#154,#155,#156,#157,#158),#307);
#307=(
GEOMETRIC_REPRESENTATION_CONTEXT(3)
GLOBAL_UNCERTAINTY_ASSIGNED_CONTEXT((#308))
GLOBAL_UNIT_ASSIGNED_CONTEXT((#314,#310,#309))
REPRESENTATION_CONTEXT('TOOL','TOP_LEVEL_ASSEMBLY_PART')
);
#308=UNCERTAINTY_MEASURE_WITH_UNIT(LENGTH_MEASURE(0.0508),#314,
'DISTANCE_ACCURACY_VALUE','Maximum Tolerance applied to model');
#309=(
NAMED_UNIT(*)
SI_UNIT($,.STERADIAN.)
SOLID_ANGLE_UNIT()
);
#310=(
CONVERSION_BASED_UNIT('DEGREE',#312)
NAMED_UNIT(#311)
PLANE_ANGLE_UNIT()
);
#311=DIMENSIONAL_EXPONENTS(0.,0.,0.,0.,0.,0.,0.);
#312=PLANE_ANGLE_MEASURE_WITH_UNIT(PLANE_ANGLE_MEASURE(0.0174532925),#313);
#313=(
NAMED_UNIT(*)
PLANE_ANGLE_UNIT()
SI_UNIT($,.RADIAN.)
);
#314=(
LENGTH_UNIT()
NAMED_UNIT(*)
SI_UNIT(.MILLI.,.METRE.)
);
ENDSEC;
END-ISO-10303-21;
