ISO-10303-21;
HEADER;
/* Generated by software containing ST-Developer
 * from STEP Tools, Inc. (www.steptools.com) 
 */
/* OPTION: using custom schema-name function */

FILE_DESCRIPTION(
/* description */ (''),
/* implementation_level */ '2;1');

FILE_NAME(
/* name */ 'TOOL.STP',
/* time_stamp */ '2024-08-27T12:48:58+02:00',
/* author */ (''),
/* organization */ ('SMS'),
/* preprocessor_version */ 'ST-DEVELOPER v16.7',
/* originating_system */ 'SIEMENS PLM Software NX 12.0',
/* authorisation */ '');

FILE_SCHEMA (('AUTOMOTIVE_DESIGN { 1 0 10303 214 3 1 1 1 }'));
ENDSEC;

DATA;
#10=CONSTRUCTIVE_GEOMETRY_REPRESENTATION_RELATIONSHIP(
'supplemental geometry','',#26,#11);
#11=CONSTRUCTIVE_GEOMETRY_REPRESENTATION('supplemental geometry',(#190,
#191,#192),#343);
#12=GEOMETRICALLY_BOUNDED_WIREFRAME_SHAPE_REPRESENTATION('Tool-None',(#27),
#343);
#13=SHAPE_REPRESENTATION_RELATIONSHIP('None',
'relationship between Tool-None and Tool-None',#26,#15);
#14=SHAPE_REPRESENTATION_RELATIONSHIP('None',
'relationship between Tool-None and Tool-None',#26,#12);
#15=ADVANCED_BREP_SHAPE_REPRESENTATION('Tool-None',(#40,#41),#343);
#16=SHAPE_DEFINITION_REPRESENTATION(#17,#26);
#17=PRODUCT_DEFINITION_SHAPE('','',#18);
#18=PRODUCT_DEFINITION(' ','',#20,#19);
#19=PRODUCT_DEFINITION_CONTEXT('part definition',#25,'design');
#20=PRODUCT_DEFINITION_FORMATION_WITH_SPECIFIED_SOURCE(' ',' ',#22,
 .NOT_KNOWN.);
#21=PRODUCT_RELATED_PRODUCT_CATEGORY('part','',(#22));
#22=PRODUCT('Tool','Tool',' ',(#23));
#23=PRODUCT_CONTEXT(' ',#25,'mechanical');
#24=APPLICATION_PROTOCOL_DEFINITION('international standard',
'automotive_design',2010,#25);
#25=APPLICATION_CONTEXT(
'core data for automotive mechanical design processes');
#26=SHAPE_REPRESENTATION('Tool-None',(#189),#343);
#27=GEOMETRIC_CURVE_SET('None',(#256,#257,#258,#156));
#28=SPHERICAL_SURFACE('',#210,4.);
#29=VERTEX_LOOP('',#131);
#30=SURFACE_STYLE_USAGE(.BOTH.,#32);
#31=SURFACE_STYLE_USAGE(.BOTH.,#33);
#32=SURFACE_SIDE_STYLE('',(#34));
#33=SURFACE_SIDE_STYLE('',(#35));
#34=SURFACE_STYLE_FILL_AREA(#36);
#35=SURFACE_STYLE_FILL_AREA(#37);
#36=FILL_AREA_STYLE('',(#38));
#37=FILL_AREA_STYLE('',(#39));
#38=FILL_AREA_STYLE_COLOUR('',#187);
#39=FILL_AREA_STYLE_COLOUR('',#188);
#40=MANIFOLD_SOLID_BREP('NOCUT',#42);
#41=MANIFOLD_SOLID_BREP('CUT',#43);
#42=CLOSED_SHELL('',(#57,#58,#59,#60,#61,#62,#63,#64,#65));
#43=CLOSED_SHELL('',(#66,#67));
#44=PLANE('',#201);
#45=PLANE('',#207);
#46=PLANE('',#209);
#47=FACE_OUTER_BOUND('',#94,.T.);
#48=FACE_OUTER_BOUND('',#101,.T.);
#49=FACE_OUTER_BOUND('',#102,.T.);
#50=TOROIDAL_SURFACE('',#197,4.2765,1.);
#51=TOROIDAL_SURFACE('',#199,3.4765,0.2);
#52=CYLINDRICAL_SURFACE('',#196,3.2765);
#53=CYLINDRICAL_SURFACE('',#203,4.);
#54=CYLINDRICAL_SURFACE('',#206,3.27682224113547);
#55=B_SPLINE_CURVE_WITH_KNOTS('',3,(#283,#284,#285,#286,#287,#288,#289,
#290,#291,#292,#293,#294,#295,#296,#297,#298,#299,#300),.UNSPECIFIED.,.T.,
 .F.,(2,2,2,2,2,2,2,2,2,2,2),(-0.125,0.,0.125,0.25,0.375,0.5,0.625,0.75,
0.875,1.,1.125),.UNSPECIFIED.);
#56=B_SPLINE_CURVE_WITH_KNOTS('',3,(#302,#303,#304,#305,#306,#307,#308,
#309,#310,#311,#312,#313,#314,#315,#316,#317,#318,#319),.UNSPECIFIED.,.T.,
 .F.,(2,2,2,2,2,2,2,2,2,2,2),(-0.125,0.,0.125,0.25,0.375,0.5,0.625,0.75,
0.875,1.,1.125),.UNSPECIFIED.);
#57=ADVANCED_FACE('',(#70,#71),#68,.T.);
#58=ADVANCED_FACE('',(#72,#73),#52,.T.);
#59=ADVANCED_FACE('',(#74,#75),#50,.F.);
#60=ADVANCED_FACE('',(#76,#77),#51,.F.);
#61=ADVANCED_FACE('',(#47),#44,.F.);
#62=ADVANCED_FACE('',(#78,#79),#53,.T.);
#63=ADVANCED_FACE('',(#80,#81),#69,.T.);
#64=ADVANCED_FACE('',(#82,#83),#54,.T.);
#65=ADVANCED_FACE('',(#48),#45,.T.);
#66=ADVANCED_FACE('',(#49),#46,.T.);
#67=ADVANCED_FACE('',(#84,#85),#28,.T.);
#68=CONICAL_SURFACE('',#195,3.2765,2.07177141120308);
#69=CONICAL_SURFACE('',#204,3.4,45.);
#70=FACE_BOUND('',#86,.T.);
#71=FACE_BOUND('',#87,.T.);
#72=FACE_BOUND('',#88,.T.);
#73=FACE_BOUND('',#89,.T.);
#74=FACE_BOUND('',#90,.T.);
#75=FACE_BOUND('',#91,.T.);
#76=FACE_BOUND('',#92,.T.);
#77=FACE_BOUND('',#93,.T.);
#78=FACE_BOUND('',#95,.T.);
#79=FACE_BOUND('',#96,.T.);
#80=FACE_BOUND('',#97,.T.);
#81=FACE_BOUND('',#98,.T.);
#82=FACE_BOUND('',#99,.T.);
#83=FACE_BOUND('',#100,.T.);
#84=FACE_BOUND('',#29,.T.);
#85=FACE_BOUND('',#103,.T.);
#86=EDGE_LOOP('',(#104));
#87=EDGE_LOOP('',(#105));
#88=EDGE_LOOP('',(#106));
#89=EDGE_LOOP('',(#107));
#90=EDGE_LOOP('',(#108));
#91=EDGE_LOOP('',(#109));
#92=EDGE_LOOP('',(#110));
#93=EDGE_LOOP('',(#111));
#94=EDGE_LOOP('',(#112));
#95=EDGE_LOOP('',(#113));
#96=EDGE_LOOP('',(#114));
#97=EDGE_LOOP('',(#115));
#98=EDGE_LOOP('',(#116));
#99=EDGE_LOOP('',(#117));
#100=EDGE_LOOP('',(#118));
#101=EDGE_LOOP('',(#119));
#102=EDGE_LOOP('',(#120));
#103=EDGE_LOOP('',(#121));
#104=ORIENTED_EDGE('',*,*,#132,.T.);
#105=ORIENTED_EDGE('',*,*,#133,.F.);
#106=ORIENTED_EDGE('',*,*,#134,.T.);
#107=ORIENTED_EDGE('',*,*,#135,.T.);
#108=ORIENTED_EDGE('',*,*,#135,.F.);
#109=ORIENTED_EDGE('',*,*,#132,.F.);
#110=ORIENTED_EDGE('',*,*,#136,.T.);
#111=ORIENTED_EDGE('',*,*,#134,.F.);
#112=ORIENTED_EDGE('',*,*,#137,.T.);
#113=ORIENTED_EDGE('',*,*,#138,.T.);
#114=ORIENTED_EDGE('',*,*,#133,.T.);
#115=ORIENTED_EDGE('',*,*,#138,.F.);
#116=ORIENTED_EDGE('',*,*,#137,.F.);
#117=ORIENTED_EDGE('',*,*,#139,.F.);
#118=ORIENTED_EDGE('',*,*,#136,.F.);
#119=ORIENTED_EDGE('',*,*,#139,.T.);
#120=ORIENTED_EDGE('',*,*,#140,.T.);
#121=ORIENTED_EDGE('',*,*,#140,.F.);
#122=VERTEX_POINT('',#279);
#123=VERTEX_POINT('',#281);
#124=VERTEX_POINT('',#301);
#125=VERTEX_POINT('',#320);
#126=VERTEX_POINT('',#324);
#127=VERTEX_POINT('',#327);
#128=VERTEX_POINT('',#330);
#129=VERTEX_POINT('',#334);
#130=VERTEX_POINT('',#338);
#131=VERTEX_POINT('',#340);
#132=EDGE_CURVE('',#122,#122,#141,.T.);
#133=EDGE_CURVE('',#123,#123,#142,.T.);
#134=EDGE_CURVE('',#124,#124,#55,.T.);
#135=EDGE_CURVE('',#125,#125,#56,.T.);
#136=EDGE_CURVE('',#126,#126,#143,.T.);
#137=EDGE_CURVE('',#127,#127,#144,.T.);
#138=EDGE_CURVE('',#128,#128,#145,.T.);
#139=EDGE_CURVE('',#129,#129,#146,.T.);
#140=EDGE_CURVE('',#130,#130,#147,.T.);
#141=CIRCLE('',#193,3.27715367381924);
#142=CIRCLE('',#194,4.);
#143=CIRCLE('',#198,3.27682224113547);
#144=CIRCLE('',#200,3.4);
#145=CIRCLE('',#202,4.);
#146=CIRCLE('',#205,3.27682224113547);
#147=CIRCLE('',#208,3.27682224113547);
#148=CURVE_STYLE('',#152,POSITIVE_LENGTH_MEASURE(0.18),#159);
#149=CURVE_STYLE('',#153,POSITIVE_LENGTH_MEASURE(0.13),#186);
#150=CURVE_STYLE('',#154,POSITIVE_LENGTH_MEASURE(0.18),#185);
#151=CURVE_STYLE('',#155,POSITIVE_LENGTH_MEASURE(0.18),#185);
#152=DRAUGHTING_PRE_DEFINED_CURVE_FONT('continuous');
#153=DRAUGHTING_PRE_DEFINED_CURVE_FONT('continuous');
#154=DRAUGHTING_PRE_DEFINED_CURVE_FONT('continuous');
#155=DRAUGHTING_PRE_DEFINED_CURVE_FONT('continuous');
#156=TRIMMED_CURVE('CUTTING PART LINE',#157,(PARAMETER_VALUE(0.)),(
PARAMETER_VALUE(1.)),.T.,.PARAMETER.);
#157=(
BOUNDED_CURVE()
B_SPLINE_CURVE(4,(#259,#260,#261,#262,#263,#264,#265,#266,#267,#268,#269,
#270,#271,#272,#273,#274),.UNSPECIFIED.,.T.,.F.)
B_SPLINE_CURVE_WITH_KNOTS((5,4,3,4,5),(0.,0.34398902711547,0.582449637901218,
0.820910248686967,1.),.UNSPECIFIED.)
CURVE()
GEOMETRIC_REPRESENTATION_ITEM()
RATIONAL_B_SPLINE_CURVE((1.,1.,1.,1.,1.,1.,0.9859686307196,1.,1.,0.9859686307196,
1.,1.,1.,1.,1.,1.))
REPRESENTATION_ITEM('CUTTING PART LINE')
);
#158=DRAUGHTING_PRE_DEFINED_COLOUR('white');
#159=DRAUGHTING_PRE_DEFINED_COLOUR('blue');
#160=PRESENTATION_LAYER_ASSIGNMENT('1','Layer 1',(#256,#257,#258,#156,#190,
#191,#192,#40,#41));
#161=STYLED_ITEM('',(#170),#256);
#162=STYLED_ITEM('',(#171),#257);
#163=STYLED_ITEM('',(#172),#258);
#164=STYLED_ITEM('',(#173),#156);
#165=STYLED_ITEM('',(#174),#190);
#166=STYLED_ITEM('',(#175),#191);
#167=STYLED_ITEM('',(#176),#192);
#168=STYLED_ITEM('',(#177),#40);
#169=STYLED_ITEM('',(#178),#41);
#170=PRESENTATION_STYLE_ASSIGNMENT((#179));
#171=PRESENTATION_STYLE_ASSIGNMENT((#180));
#172=PRESENTATION_STYLE_ASSIGNMENT((#181));
#173=PRESENTATION_STYLE_ASSIGNMENT((#148));
#174=PRESENTATION_STYLE_ASSIGNMENT((#149));
#175=PRESENTATION_STYLE_ASSIGNMENT((#150));
#176=PRESENTATION_STYLE_ASSIGNMENT((#151));
#177=PRESENTATION_STYLE_ASSIGNMENT((#30));
#178=PRESENTATION_STYLE_ASSIGNMENT((#31));
#179=POINT_STYLE('',#182,POSITIVE_LENGTH_MEASURE(3.),#185);
#180=POINT_STYLE('',#183,POSITIVE_LENGTH_MEASURE(3.),#158);
#181=POINT_STYLE('',#184,POSITIVE_LENGTH_MEASURE(3.),#185);
#182=PRE_DEFINED_POINT_MARKER_SYMBOL('plus');
#183=PRE_DEFINED_POINT_MARKER_SYMBOL('plus');
#184=PRE_DEFINED_POINT_MARKER_SYMBOL('plus');
#185=COLOUR_RGB('Medium Maroon',0.6,0.4,0.4);
#186=COLOUR_RGB('Silver Gray',0.6,0.6,0.6);
#187=COLOUR_RGB('TLS_NOCUT',0.498023956664378,0.498023956664378,0.498023956664378);
#188=COLOUR_RGB('TLS_CUT',0.8,0.8,0.8);
#189=AXIS2_PLACEMENT_3D('',#255,#211,#212);
#190=AXIS2_PLACEMENT_3D('PCS',#275,#213,#214);
#191=AXIS2_PLACEMENT_3D('MCS',#276,#215,#216);
#192=AXIS2_PLACEMENT_3D('CIP',#277,#217,#218);
#193=AXIS2_PLACEMENT_3D('',#278,#219,#220);
#194=AXIS2_PLACEMENT_3D('',#280,#221,#222);
#195=AXIS2_PLACEMENT_3D('',#282,#223,#224);
#196=AXIS2_PLACEMENT_3D('',#321,#225,#226);
#197=AXIS2_PLACEMENT_3D('',#322,#227,#228);
#198=AXIS2_PLACEMENT_3D('',#323,#229,#230);
#199=AXIS2_PLACEMENT_3D('',#325,#231,#232);
#200=AXIS2_PLACEMENT_3D('',#326,#233,#234);
#201=AXIS2_PLACEMENT_3D('',#328,#235,#236);
#202=AXIS2_PLACEMENT_3D('',#329,#237,#238);
#203=AXIS2_PLACEMENT_3D('',#331,#239,#240);
#204=AXIS2_PLACEMENT_3D('',#332,#241,#242);
#205=AXIS2_PLACEMENT_3D('',#333,#243,#244);
#206=AXIS2_PLACEMENT_3D('',#335,#245,#246);
#207=AXIS2_PLACEMENT_3D('',#336,#247,#248);
#208=AXIS2_PLACEMENT_3D('',#337,#249,#250);
#209=AXIS2_PLACEMENT_3D('',#339,#251,#252);
#210=AXIS2_PLACEMENT_3D('',#341,#253,#254);
#211=DIRECTION('',(0.,0.,1.));
#212=DIRECTION('',(1.,0.,0.));
#213=DIRECTION('',(0.,0.,1.));
#214=DIRECTION('',(1.,0.,0.));
#215=DIRECTION('',(0.,0.,1.));
#216=DIRECTION('',(1.,0.,0.));
#217=DIRECTION('',(0.,0.,1.));
#218=DIRECTION('',(1.,0.,0.));
#219=DIRECTION('',(0.,0.,1.));
#220=DIRECTION('',(1.,0.,0.));
#221=DIRECTION('',(0.,0.,1.));
#222=DIRECTION('',(1.,0.,0.));
#223=DIRECTION('',(0.,0.,1.));
#224=DIRECTION('',(1.,0.,-1.0553049547785E-15));
#225=DIRECTION('',(0.,0.,1.));
#226=DIRECTION('',(1.,0.,0.));
#227=DIRECTION('',(0.,0.,1.));
#228=DIRECTION('',(1.,0.,0.));
#229=DIRECTION('',(0.,0.,1.));
#230=DIRECTION('',(1.,0.,0.));
#231=DIRECTION('',(0.,0.,1.));
#232=DIRECTION('',(1.,0.,0.));
#233=DIRECTION('',(0.,0.,1.));
#234=DIRECTION('',(-1.,0.,0.));
#235=DIRECTION('',(0.,0.,-1.));
#236=DIRECTION('',(-1.,0.,0.));
#237=DIRECTION('',(0.,0.,-1.));
#238=DIRECTION('',(-1.,0.,0.));
#239=DIRECTION('',(0.,0.,1.));
#240=DIRECTION('',(1.,0.,0.));
#241=DIRECTION('',(0.,0.,-1.));
#242=DIRECTION('',(-1.,0.,0.));
#243=DIRECTION('',(0.,0.,-1.));
#244=DIRECTION('',(-1.,0.,0.));
#245=DIRECTION('',(0.,0.,-1.));
#246=DIRECTION('',(-1.,0.,0.));
#247=DIRECTION('',(0.,0.,-1.));
#248=DIRECTION('',(-1.,0.,0.));
#249=DIRECTION('',(0.,0.,1.));
#250=DIRECTION('',(-1.,0.,0.));
#251=DIRECTION('',(0.,0.,1.));
#252=DIRECTION('',(1.,0.,0.));
#253=DIRECTION('',(0.,-6.12323399573677E-17,-1.));
#254=DIRECTION('',(0.,-1.,0.));
#255=CARTESIAN_POINT('',(0.,0.,0.));
#256=CARTESIAN_POINT('',(0.,0.,-36.));
#257=CARTESIAN_POINT('CRP',(-4.,0.,-100.));
#258=CARTESIAN_POINT('CIP_DCSYS',(0.,0.,-100.));
#259=CARTESIAN_POINT('',(0.,0.,-93.706));
#260=CARTESIAN_POINT('',(0.,0.,-95.2795));
#261=CARTESIAN_POINT('',(0.,0.,-96.853));
#262=CARTESIAN_POINT('',(0.,0.,-98.4265));
#263=CARTESIAN_POINT('',(2.44929359829471E-16,0.,-100.));
#264=CARTESIAN_POINT('',(-1.03750663076362,0.,-100.));
#265=CARTESIAN_POINT('',(-2.20631578714424,0.,-99.6360871345731));
#266=CARTESIAN_POINT('',(-3.06884697628955,0.,-98.7674172516982));
#267=CARTESIAN_POINT('',(-4.02706734111873,0.,-96.9269027127878));
#268=CARTESIAN_POINT('',(-4.24402490224617,0.,-95.7221301888929));
#269=CARTESIAN_POINT('',(-3.87183229387841,0.,-94.555931200753));
#270=CARTESIAN_POINT('',(-3.27682224113548,0.,-93.706));
#271=CARTESIAN_POINT('',(-2.45761668085161,0.,-93.7060000000001));
#272=CARTESIAN_POINT('',(-1.63841112056774,0.,-93.7060000000001));
#273=CARTESIAN_POINT('',(-0.819205560283871,0.,-93.7060000000001));
#274=CARTESIAN_POINT('',(0.,0.,-93.7060000000001));
#275=CARTESIAN_POINT('',(0.,0.,0.));
#276=CARTESIAN_POINT('',(0.,0.,-36.));
#277=CARTESIAN_POINT('',(0.,0.,-100.));
#278=CARTESIAN_POINT('',(0.,0.,-71.9632656257468));
#279=CARTESIAN_POINT('',(3.27715367381924,0.,-71.9632656257468));
#280=CARTESIAN_POINT('',(0.,0.,-51.9813353926916));
#281=CARTESIAN_POINT('',(4.,0.,-51.9813353926916));
#282=CARTESIAN_POINT('',(0.,0.,-71.9813353926919));
#283=CARTESIAN_POINT('',(3.2765,-0.857785694123914,-93.505086014591));
#284=CARTESIAN_POINT('',(3.2765,0.857785694123913,-93.505086014591));
#285=CARTESIAN_POINT('',(2.92338144967755,1.7102892874379,-93.5050860145911));
#286=CARTESIAN_POINT('',(1.7102892874379,2.92338144967755,-93.505086014591));
#287=CARTESIAN_POINT('',(0.857785694123914,3.2765,-93.5050860145911));
#288=CARTESIAN_POINT('',(-0.857785694123913,3.2765,-93.505086014591));
#289=CARTESIAN_POINT('',(-1.7102892874379,2.92338144967755,-93.5050860145911));
#290=CARTESIAN_POINT('',(-2.92338144967755,1.7102892874379,-93.505086014591));
#291=CARTESIAN_POINT('',(-3.2765,0.857785694123914,-93.5050860145911));
#292=CARTESIAN_POINT('',(-3.2765,-0.857785694123913,-93.5050860145911));
#293=CARTESIAN_POINT('',(-2.92338144967755,-1.7102892874379,-93.5050860145911));
#294=CARTESIAN_POINT('',(-1.7102892874379,-2.92338144967756,-93.5050860145911));
#295=CARTESIAN_POINT('',(-0.857785694123914,-3.2765,-93.5050860145911));
#296=CARTESIAN_POINT('',(0.857785694123914,-3.2765,-93.5050860145911));
#297=CARTESIAN_POINT('',(1.7102892874379,-2.92338144967755,-93.5050860145911));
#298=CARTESIAN_POINT('',(2.92338144967755,-1.7102892874379,-93.5050860145911));
#299=CARTESIAN_POINT('',(3.2765,-0.857785694123914,-93.505086014591));
#300=CARTESIAN_POINT('',(3.2765,0.857785694123913,-93.505086014591));
#301=CARTESIAN_POINT('',(3.2765,-4.01255523740631E-16,-93.5050860145911));
#302=CARTESIAN_POINT('',(3.2765,0.857785694123913,-71.9994169790965));
#303=CARTESIAN_POINT('',(3.2765,-0.857785694123914,-71.9994169790964));
#304=CARTESIAN_POINT('',(2.92338144967755,-1.7102892874379,-71.9994169790964));
#305=CARTESIAN_POINT('',(1.7102892874379,-2.92338144967755,-71.9994169790964));
#306=CARTESIAN_POINT('',(0.857785694123914,-3.2765,-71.9994169790964));
#307=CARTESIAN_POINT('',(-0.857785694123914,-3.2765,-71.9994169790964));
#308=CARTESIAN_POINT('',(-1.7102892874379,-2.92338144967755,-71.9994169790964));
#309=CARTESIAN_POINT('',(-2.92338144967755,-1.7102892874379,-71.9994169790964));
#310=CARTESIAN_POINT('',(-3.2765,-0.857785694123913,-71.9994169790964));
#311=CARTESIAN_POINT('',(-3.2765,0.857785694123915,-71.9994169790964));
#312=CARTESIAN_POINT('',(-2.92338144967755,1.7102892874379,-71.9994169790964));
#313=CARTESIAN_POINT('',(-1.7102892874379,2.92338144967755,-71.9994169790964));
#314=CARTESIAN_POINT('',(-0.857785694123914,3.2765,-71.9994169790964));
#315=CARTESIAN_POINT('',(0.857785694123914,3.2765,-71.9994169790964));
#316=CARTESIAN_POINT('',(1.7102892874379,2.92338144967755,-71.9994169790964));
#317=CARTESIAN_POINT('',(2.92338144967755,1.7102892874379,-71.9994169790964));
#318=CARTESIAN_POINT('',(3.2765,0.857785694123913,-71.9994169790965));
#319=CARTESIAN_POINT('',(3.2765,-0.857785694123914,-71.9994169790964));
#320=CARTESIAN_POINT('',(3.2765,-4.01255523740631E-16,-71.9994169790964));
#321=CARTESIAN_POINT('',(0.,0.,0.));
#322=CARTESIAN_POINT('',(0.,0.,-71.9994169790964));
#323=CARTESIAN_POINT('',(0.,0.,-93.5164346979877));
#324=CARTESIAN_POINT('',(3.27682224113547,0.,-93.5164346979877));
#325=CARTESIAN_POINT('',(0.,0.,-93.5050860145911));
#326=CARTESIAN_POINT('',(0.,0.,0.));
#327=CARTESIAN_POINT('',(-3.4,0.,0.));
#328=CARTESIAN_POINT('',(0.,4.00000000000001,0.));
#329=CARTESIAN_POINT('',(0.,0.,-0.6));
#330=CARTESIAN_POINT('',(-4.,0.,-0.6));
#331=CARTESIAN_POINT('',(0.,0.,20.9080749503476));
#332=CARTESIAN_POINT('',(0.,0.,0.));
#333=CARTESIAN_POINT('',(0.,0.,-93.706));
#334=CARTESIAN_POINT('',(-3.27682224113547,0.,-93.706));
#335=CARTESIAN_POINT('',(0.,0.,-96.));
#336=CARTESIAN_POINT('',(0.,0.,-93.706));
#337=CARTESIAN_POINT('',(0.,0.,-93.706));
#338=CARTESIAN_POINT('',(-3.27682224113547,0.,-93.706));
#339=CARTESIAN_POINT('',(0.,0.,-93.706));
#340=CARTESIAN_POINT('',(0.,2.22044604925031E-16,-100.));
#341=CARTESIAN_POINT('',(0.,2.22044604925031E-16,-96.));
#342=MECHANICAL_DESIGN_GEOMETRIC_PRESENTATION_REPRESENTATION('',(#161,#162,
#163,#164,#165,#166,#167,#168,#169),#343);
#343=(
GEOMETRIC_REPRESENTATION_CONTEXT(3)
GLOBAL_UNCERTAINTY_ASSIGNED_CONTEXT((#344))
GLOBAL_UNIT_ASSIGNED_CONTEXT((#350,#346,#345))
REPRESENTATION_CONTEXT('TOOL','TOP_LEVEL_ASSEMBLY_PART')
);
#344=UNCERTAINTY_MEASURE_WITH_UNIT(LENGTH_MEASURE(0.0508),#350,
'DISTANCE_ACCURACY_VALUE','Maximum Tolerance applied to model');
#345=(
NAMED_UNIT(*)
SI_UNIT($,.STERADIAN.)
SOLID_ANGLE_UNIT()
);
#346=(
CONVERSION_BASED_UNIT('DEGREE',#348)
NAMED_UNIT(#347)
PLANE_ANGLE_UNIT()
);
#347=DIMENSIONAL_EXPONENTS(0.,0.,0.,0.,0.,0.,0.);
#348=PLANE_ANGLE_MEASURE_WITH_UNIT(PLANE_ANGLE_MEASURE(0.0174532925),#349);
#349=(
NAMED_UNIT(*)
PLANE_ANGLE_UNIT()
SI_UNIT($,.RADIAN.)
);
#350=(
LENGTH_UNIT()
NAMED_UNIT(*)
SI_UNIT(.MILLI.,.METRE.)
);
ENDSEC;
END-ISO-10303-21;
