ISO-10303-21;
HEADER;
/* Generated by software containing ST-Developer
 * from STEP Tools, Inc. (www.steptools.com) 
 */
/* OPTION: using custom schema-name function */

FILE_DESCRIPTION(
/* description */ (''),
/* implementation_level */ '2;1');

FILE_NAME(
/* name */ 'TOOL.STP',
/* time_stamp */ '2024-08-27T12:31:25+02:00',
/* author */ (''),
/* organization */ ('SMS'),
/* preprocessor_version */ 'ST-DEVELOPER v16.7',
/* originating_system */ 'SIEMENS PLM Software NX 12.0',
/* authorisation */ '');

FILE_SCHEMA (('AUTOMOTIVE_DESIGN { 1 0 10303 214 3 1 1 1 }'));
ENDSEC;

DATA;
#10=CONSTRUCTIVE_GEOMETRY_REPRESENTATION_RELATIONSHIP(
'supplemental geometry','',#26,#11);
#11=CONSTRUCTIVE_GEOMETRY_REPRESENTATION('supplemental geometry',(#190,
#191,#192),#321);
#12=GEOMETRICALLY_BOUNDED_WIREFRAME_SHAPE_REPRESENTATION('Tool-None',(#27),
#321);
#13=SHAPE_REPRESENTATION_RELATIONSHIP('None',
'relationship between Tool-None and Tool-None',#26,#15);
#14=SHAPE_REPRESENTATION_RELATIONSHIP('None',
'relationship between Tool-None and Tool-None',#26,#12);
#15=ADVANCED_BREP_SHAPE_REPRESENTATION('Tool-None',(#40,#41),#321);
#16=SHAPE_DEFINITION_REPRESENTATION(#17,#26);
#17=PRODUCT_DEFINITION_SHAPE('','',#18);
#18=PRODUCT_DEFINITION(' ','',#20,#19);
#19=PRODUCT_DEFINITION_CONTEXT('part definition',#25,'design');
#20=PRODUCT_DEFINITION_FORMATION_WITH_SPECIFIED_SOURCE(' ',' ',#22,
 .NOT_KNOWN.);
#21=PRODUCT_RELATED_PRODUCT_CATEGORY('part','',(#22));
#22=PRODUCT('Tool','Tool',' ',(#23));
#23=PRODUCT_CONTEXT(' ',#25,'mechanical');
#24=APPLICATION_PROTOCOL_DEFINITION('international standard',
'automotive_design',2010,#25);
#25=APPLICATION_CONTEXT(
'core data for automotive mechanical design processes');
#26=SHAPE_REPRESENTATION('Tool-None',(#189),#321);
#27=GEOMETRIC_CURVE_SET('None',(#259,#260,#261,#156));
#28=SPHERICAL_SURFACE('',#211,1.);
#29=VERTEX_LOOP('',#130);
#30=SURFACE_STYLE_USAGE(.BOTH.,#32);
#31=SURFACE_STYLE_USAGE(.BOTH.,#33);
#32=SURFACE_SIDE_STYLE('',(#34));
#33=SURFACE_SIDE_STYLE('',(#35));
#34=SURFACE_STYLE_FILL_AREA(#36);
#35=SURFACE_STYLE_FILL_AREA(#37);
#36=FILL_AREA_STYLE('',(#38));
#37=FILL_AREA_STYLE('',(#39));
#38=FILL_AREA_STYLE_COLOUR('',#187);
#39=FILL_AREA_STYLE_COLOUR('',#188);
#40=MANIFOLD_SOLID_BREP('NOCUT',#42);
#41=MANIFOLD_SOLID_BREP('CUT',#43);
#42=CLOSED_SHELL('',(#56,#57,#58,#59,#60,#61,#62,#63,#64));
#43=CLOSED_SHELL('',(#65,#66));
#44=PLANE('',#202);
#45=PLANE('',#208);
#46=PLANE('',#210);
#47=FACE_OUTER_BOUND('',#93,.T.);
#48=FACE_OUTER_BOUND('',#100,.T.);
#49=FACE_OUTER_BOUND('',#101,.T.);
#50=TOROIDAL_SURFACE('',#198,1.819,1.);
#51=TOROIDAL_SURFACE('',#200,1.019,0.2);
#52=CYLINDRICAL_SURFACE('',#197,0.818999999999997);
#53=CYLINDRICAL_SURFACE('',#204,3.);
#54=CYLINDRICAL_SURFACE('',#207,0.819555367257167);
#55=B_SPLINE_CURVE_WITH_KNOTS('',3,(#288,#289,#290,#291,#292,#293,#294,
#295,#296,#297),.UNSPECIFIED.,.T.,.F.,(2,2,2,2,2,2,2),(-0.25,0.,0.25,0.5,
0.75,1.,1.25),.UNSPECIFIED.);
#56=ADVANCED_FACE('',(#69,#70),#67,.T.);
#57=ADVANCED_FACE('',(#71,#72),#52,.T.);
#58=ADVANCED_FACE('',(#73,#74),#50,.F.);
#59=ADVANCED_FACE('',(#75,#76),#51,.F.);
#60=ADVANCED_FACE('',(#47),#44,.F.);
#61=ADVANCED_FACE('',(#77,#78),#53,.T.);
#62=ADVANCED_FACE('',(#79,#80),#68,.T.);
#63=ADVANCED_FACE('',(#81,#82),#54,.T.);
#64=ADVANCED_FACE('',(#48),#45,.T.);
#65=ADVANCED_FACE('',(#49),#46,.T.);
#66=ADVANCED_FACE('',(#83,#84),#28,.T.);
#67=CONICAL_SURFACE('',#195,0.818999999999999,17.3055419899316);
#68=CONICAL_SURFACE('',#205,2.6,45.);
#69=FACE_BOUND('',#85,.T.);
#70=FACE_BOUND('',#86,.T.);
#71=FACE_BOUND('',#87,.T.);
#72=FACE_BOUND('',#88,.T.);
#73=FACE_BOUND('',#89,.T.);
#74=FACE_BOUND('',#90,.T.);
#75=FACE_BOUND('',#91,.T.);
#76=FACE_BOUND('',#92,.T.);
#77=FACE_BOUND('',#94,.T.);
#78=FACE_BOUND('',#95,.T.);
#79=FACE_BOUND('',#96,.T.);
#80=FACE_BOUND('',#97,.T.);
#81=FACE_BOUND('',#98,.T.);
#82=FACE_BOUND('',#99,.T.);
#83=FACE_BOUND('',#29,.T.);
#84=FACE_BOUND('',#102,.T.);
#85=EDGE_LOOP('',(#103));
#86=EDGE_LOOP('',(#104));
#87=EDGE_LOOP('',(#105));
#88=EDGE_LOOP('',(#106));
#89=EDGE_LOOP('',(#107));
#90=EDGE_LOOP('',(#108));
#91=EDGE_LOOP('',(#109));
#92=EDGE_LOOP('',(#110));
#93=EDGE_LOOP('',(#111));
#94=EDGE_LOOP('',(#112));
#95=EDGE_LOOP('',(#113));
#96=EDGE_LOOP('',(#114));
#97=EDGE_LOOP('',(#115));
#98=EDGE_LOOP('',(#116));
#99=EDGE_LOOP('',(#117));
#100=EDGE_LOOP('',(#118));
#101=EDGE_LOOP('',(#119));
#102=EDGE_LOOP('',(#120));
#103=ORIENTED_EDGE('',*,*,#131,.T.);
#104=ORIENTED_EDGE('',*,*,#132,.F.);
#105=ORIENTED_EDGE('',*,*,#133,.T.);
#106=ORIENTED_EDGE('',*,*,#134,.T.);
#107=ORIENTED_EDGE('',*,*,#133,.F.);
#108=ORIENTED_EDGE('',*,*,#131,.F.);
#109=ORIENTED_EDGE('',*,*,#135,.T.);
#110=ORIENTED_EDGE('',*,*,#134,.F.);
#111=ORIENTED_EDGE('',*,*,#136,.T.);
#112=ORIENTED_EDGE('',*,*,#137,.T.);
#113=ORIENTED_EDGE('',*,*,#132,.T.);
#114=ORIENTED_EDGE('',*,*,#137,.F.);
#115=ORIENTED_EDGE('',*,*,#136,.F.);
#116=ORIENTED_EDGE('',*,*,#138,.F.);
#117=ORIENTED_EDGE('',*,*,#135,.F.);
#118=ORIENTED_EDGE('',*,*,#138,.T.);
#119=ORIENTED_EDGE('',*,*,#139,.T.);
#120=ORIENTED_EDGE('',*,*,#139,.F.);
#121=VERTEX_POINT('',#282);
#122=VERTEX_POINT('',#284);
#123=VERTEX_POINT('',#287);
#124=VERTEX_POINT('',#298);
#125=VERTEX_POINT('',#302);
#126=VERTEX_POINT('',#305);
#127=VERTEX_POINT('',#308);
#128=VERTEX_POINT('',#312);
#129=VERTEX_POINT('',#316);
#130=VERTEX_POINT('',#318);
#131=EDGE_CURVE('',#121,#121,#140,.T.);
#132=EDGE_CURVE('',#122,#122,#141,.T.);
#133=EDGE_CURVE('',#123,#123,#142,.T.);
#134=EDGE_CURVE('',#124,#124,#55,.T.);
#135=EDGE_CURVE('',#125,#125,#143,.T.);
#136=EDGE_CURVE('',#126,#126,#144,.T.);
#137=EDGE_CURVE('',#127,#127,#145,.T.);
#138=EDGE_CURVE('',#128,#128,#146,.T.);
#139=EDGE_CURVE('',#129,#129,#147,.T.);
#140=CIRCLE('',#193,0.864267968837052);
#141=CIRCLE('',#194,3.);
#142=CIRCLE('',#196,0.818999999999997);
#143=CIRCLE('',#199,0.819555367257167);
#144=CIRCLE('',#201,2.6);
#145=CIRCLE('',#203,3.);
#146=CIRCLE('',#206,0.819555367257167);
#147=CIRCLE('',#209,0.819555367257164);
#148=CURVE_STYLE('',#152,POSITIVE_LENGTH_MEASURE(0.18),#159);
#149=CURVE_STYLE('',#153,POSITIVE_LENGTH_MEASURE(0.13),#186);
#150=CURVE_STYLE('',#154,POSITIVE_LENGTH_MEASURE(0.18),#185);
#151=CURVE_STYLE('',#155,POSITIVE_LENGTH_MEASURE(0.18),#185);
#152=DRAUGHTING_PRE_DEFINED_CURVE_FONT('continuous');
#153=DRAUGHTING_PRE_DEFINED_CURVE_FONT('continuous');
#154=DRAUGHTING_PRE_DEFINED_CURVE_FONT('continuous');
#155=DRAUGHTING_PRE_DEFINED_CURVE_FONT('continuous');
#156=TRIMMED_CURVE('CUTTING PART LINE',#157,(PARAMETER_VALUE(0.)),(
PARAMETER_VALUE(1.)),.T.,.PARAMETER.);
#157=(
BOUNDED_CURVE()
B_SPLINE_CURVE(4,(#262,#263,#264,#265,#266,#267,#268,#269,#270,#271,#272,
#273,#274,#275,#276,#277),.UNSPECIFIED.,.T.,.F.)
B_SPLINE_CURVE_WITH_KNOTS((5,4,4,3,5),(0.,0.343936894940422,0.523132907798988,
0.761566453899494,1.),.UNSPECIFIED.)
CURVE()
GEOMETRIC_REPRESENTATION_ITEM()
RATIONAL_B_SPLINE_CURVE((0.539082657052964,0.539082657052964,0.539082657052964,
0.539082657052964,0.539082657052964,0.539082657052964,0.539082657052964,
0.539082657052964,0.539082657052964,0.539082657052964,0.531526838232057,
0.539082657052964,0.539082657052964,0.531526838232057,0.539082657052964,
0.539082657052964))
REPRESENTATION_ITEM('CUTTING PART LINE')
);
#158=DRAUGHTING_PRE_DEFINED_COLOUR('white');
#159=DRAUGHTING_PRE_DEFINED_COLOUR('blue');
#160=PRESENTATION_LAYER_ASSIGNMENT('1','Layer 1',(#259,#260,#261,#156,#190,
#191,#192,#40,#41));
#161=STYLED_ITEM('',(#170),#259);
#162=STYLED_ITEM('',(#171),#260);
#163=STYLED_ITEM('',(#172),#261);
#164=STYLED_ITEM('',(#173),#156);
#165=STYLED_ITEM('',(#174),#190);
#166=STYLED_ITEM('',(#175),#191);
#167=STYLED_ITEM('',(#176),#192);
#168=STYLED_ITEM('',(#177),#40);
#169=STYLED_ITEM('',(#178),#41);
#170=PRESENTATION_STYLE_ASSIGNMENT((#179));
#171=PRESENTATION_STYLE_ASSIGNMENT((#180));
#172=PRESENTATION_STYLE_ASSIGNMENT((#181));
#173=PRESENTATION_STYLE_ASSIGNMENT((#148));
#174=PRESENTATION_STYLE_ASSIGNMENT((#149));
#175=PRESENTATION_STYLE_ASSIGNMENT((#150));
#176=PRESENTATION_STYLE_ASSIGNMENT((#151));
#177=PRESENTATION_STYLE_ASSIGNMENT((#30));
#178=PRESENTATION_STYLE_ASSIGNMENT((#31));
#179=POINT_STYLE('',#182,POSITIVE_LENGTH_MEASURE(3.),#185);
#180=POINT_STYLE('',#183,POSITIVE_LENGTH_MEASURE(3.),#158);
#181=POINT_STYLE('',#184,POSITIVE_LENGTH_MEASURE(3.),#185);
#182=PRE_DEFINED_POINT_MARKER_SYMBOL('plus');
#183=PRE_DEFINED_POINT_MARKER_SYMBOL('plus');
#184=PRE_DEFINED_POINT_MARKER_SYMBOL('plus');
#185=COLOUR_RGB('Medium Maroon',0.6,0.4,0.4);
#186=COLOUR_RGB('Silver Gray',0.6,0.6,0.6);
#187=COLOUR_RGB('TLS_NOCUT',0.498023956664378,0.498023956664378,0.498023956664378);
#188=COLOUR_RGB('TLS_CUT',0.8,0.8,0.8);
#189=AXIS2_PLACEMENT_3D('',#258,#212,#213);
#190=AXIS2_PLACEMENT_3D('PCS',#278,#214,#215);
#191=AXIS2_PLACEMENT_3D('MCS',#279,#216,#217);
#192=AXIS2_PLACEMENT_3D('CIP',#280,#218,#219);
#193=AXIS2_PLACEMENT_3D('',#281,#220,#221);
#194=AXIS2_PLACEMENT_3D('',#283,#222,#223);
#195=AXIS2_PLACEMENT_3D('',#285,#224,#225);
#196=AXIS2_PLACEMENT_3D('',#286,#226,#227);
#197=AXIS2_PLACEMENT_3D('',#299,#228,#229);
#198=AXIS2_PLACEMENT_3D('',#300,#230,#231);
#199=AXIS2_PLACEMENT_3D('',#301,#232,#233);
#200=AXIS2_PLACEMENT_3D('',#303,#234,#235);
#201=AXIS2_PLACEMENT_3D('',#304,#236,#237);
#202=AXIS2_PLACEMENT_3D('',#306,#238,#239);
#203=AXIS2_PLACEMENT_3D('',#307,#240,#241);
#204=AXIS2_PLACEMENT_3D('',#309,#242,#243);
#205=AXIS2_PLACEMENT_3D('',#310,#244,#245);
#206=AXIS2_PLACEMENT_3D('',#311,#246,#247);
#207=AXIS2_PLACEMENT_3D('',#313,#248,#249);
#208=AXIS2_PLACEMENT_3D('',#314,#250,#251);
#209=AXIS2_PLACEMENT_3D('',#315,#252,#253);
#210=AXIS2_PLACEMENT_3D('',#317,#254,#255);
#211=AXIS2_PLACEMENT_3D('',#319,#256,#257);
#212=DIRECTION('',(0.,0.,1.));
#213=DIRECTION('',(1.,0.,0.));
#214=DIRECTION('',(0.,0.,1.));
#215=DIRECTION('',(1.,0.,0.));
#216=DIRECTION('',(0.,0.,1.));
#217=DIRECTION('',(1.,0.,0.));
#218=DIRECTION('',(0.,0.,1.));
#219=DIRECTION('',(1.,0.,0.));
#220=DIRECTION('',(0.,0.,1.));
#221=DIRECTION('',(1.,0.,0.));
#222=DIRECTION('',(0.,0.,1.));
#223=DIRECTION('',(1.,0.,0.));
#224=DIRECTION('',(0.,0.,1.));
#225=DIRECTION('',(1.,0.,1.33273492449285E-16));
#226=DIRECTION('',(0.,0.,-1.));
#227=DIRECTION('',(1.,0.,0.));
#228=DIRECTION('',(0.,0.,1.));
#229=DIRECTION('',(1.,0.,0.));
#230=DIRECTION('',(0.,0.,1.));
#231=DIRECTION('',(1.,0.,0.));
#232=DIRECTION('',(0.,0.,1.));
#233=DIRECTION('',(1.,0.,0.));
#234=DIRECTION('',(0.,0.,-1.));
#235=DIRECTION('',(-1.,0.,0.));
#236=DIRECTION('',(0.,0.,1.));
#237=DIRECTION('',(-1.,0.,0.));
#238=DIRECTION('',(0.,0.,-1.));
#239=DIRECTION('',(-1.,0.,0.));
#240=DIRECTION('',(0.,0.,-1.));
#241=DIRECTION('',(-1.,0.,0.));
#242=DIRECTION('',(0.,0.,1.));
#243=DIRECTION('',(1.,0.,0.));
#244=DIRECTION('',(0.,0.,-1.));
#245=DIRECTION('',(-1.,0.,0.));
#246=DIRECTION('',(0.,0.,-1.));
#247=DIRECTION('',(-1.,0.,0.));
#248=DIRECTION('',(0.,0.,-1.));
#249=DIRECTION('',(-1.,0.,0.));
#250=DIRECTION('',(0.,0.,-1.));
#251=DIRECTION('',(-1.,0.,0.));
#252=DIRECTION('',(0.,0.,1.));
#253=DIRECTION('',(-1.,0.,0.));
#254=DIRECTION('',(0.,0.,1.));
#255=DIRECTION('',(1.,0.,0.));
#256=DIRECTION('',(0.,-6.12323399573677E-17,-1.));
#257=DIRECTION('',(0.,-1.,0.));
#258=CARTESIAN_POINT('',(0.,0.,0.));
#259=CARTESIAN_POINT('',(0.,0.,-36.));
#260=CARTESIAN_POINT('CRP',(-1.,0.,-70.));
#261=CARTESIAN_POINT('CIP_DCSYS',(0.,0.,-70.));
#262=CARTESIAN_POINT('',(0.,0.,-70.));
#263=CARTESIAN_POINT('',(0.,0.,-69.60675));
#264=CARTESIAN_POINT('',(0.,0.,-69.2135));
#265=CARTESIAN_POINT('',(0.,0.,-68.82025));
#266=CARTESIAN_POINT('',(0.,0.,-68.427));
#267=CARTESIAN_POINT('',(-0.204888841814286,0.,-68.427));
#268=CARTESIAN_POINT('',(-0.409777683628573,0.,-68.427));
#269=CARTESIAN_POINT('',(-0.614666525442859,0.,-68.427));
#270=CARTESIAN_POINT('',(-0.819555367257151,0.,-68.427));
#271=CARTESIAN_POINT('',(-0.968140824392826,0.,-68.6395200853262));
#272=CARTESIAN_POINT('',(-1.0609947457564,0.,-68.9310209436757));
#273=CARTESIAN_POINT('',(-1.00666595403242,0.,-69.2320906756663));
#274=CARTESIAN_POINT('',(-0.767030750593256,0.,-69.6920305285055));
#275=CARTESIAN_POINT('',(-0.5514178334795,0.,-69.9090689377901));
#276=CARTESIAN_POINT('',(-0.259311443517752,0.,-70.));
#277=CARTESIAN_POINT('',(1.22464679914735E-16,0.,-70.));
#278=CARTESIAN_POINT('',(0.,0.,0.));
#279=CARTESIAN_POINT('',(0.,0.,-36.));
#280=CARTESIAN_POINT('',(0.,0.,-70.));
#281=CARTESIAN_POINT('',(0.,0.,-62.6988049994984));
#282=CARTESIAN_POINT('',(0.864267968837052,0.,-62.6988049994984));
#283=CARTESIAN_POINT('',(0.,0.,-55.8440942163069));
#284=CARTESIAN_POINT('',(3.,0.,-55.8440942163069));
#285=CARTESIAN_POINT('',(0.,0.,-62.8440942163069));
#286=CARTESIAN_POINT('',(0.,0.,-62.9962722223507));
#287=CARTESIAN_POINT('',(0.818999999999997,0.,-62.9962722223507));
#288=CARTESIAN_POINT('',(-0.818999999999997,0.428827397215005,-68.2279045455064));
#289=CARTESIAN_POINT('',(-0.818999999999997,-0.428827397215005,-68.2279045455064));
#290=CARTESIAN_POINT('',(-0.428827397215005,-0.818999999999997,-68.2279045455064));
#291=CARTESIAN_POINT('',(0.428827397215005,-0.818999999999997,-68.2279045455064));
#292=CARTESIAN_POINT('',(0.818999999999997,-0.428827397215005,-68.2279045455065));
#293=CARTESIAN_POINT('',(0.818999999999997,0.428827397215005,-68.2279045455064));
#294=CARTESIAN_POINT('',(0.428827397215005,0.818999999999997,-68.2279045455065));
#295=CARTESIAN_POINT('',(-0.428827397215005,0.818999999999997,-68.2279045455064));
#296=CARTESIAN_POINT('',(-0.818999999999997,0.428827397215005,-68.2279045455064));
#297=CARTESIAN_POINT('',(-0.818999999999997,-0.428827397215005,-68.2279045455064));
#298=CARTESIAN_POINT('',(-0.818999999999997,5.01492864250839E-17,-68.2279045455064));
#299=CARTESIAN_POINT('',(0.,0.,0.));
#300=CARTESIAN_POINT('',(0.,0.,-62.9962722223507));
#301=CARTESIAN_POINT('',(0.,0.,-68.2427987883565));
#302=CARTESIAN_POINT('',(0.819555367257167,0.,-68.2427987883565));
#303=CARTESIAN_POINT('',(0.,0.,-68.2279045455064));
#304=CARTESIAN_POINT('',(0.,0.,0.));
#305=CARTESIAN_POINT('',(-2.6,0.,0.));
#306=CARTESIAN_POINT('',(0.,3.00000000000001,0.));
#307=CARTESIAN_POINT('',(0.,0.,-0.400000000000001));
#308=CARTESIAN_POINT('',(-3.,0.,-0.400000000000001));
#309=CARTESIAN_POINT('',(0.,0.,20.9080749503476));
#310=CARTESIAN_POINT('',(0.,0.,0.));
#311=CARTESIAN_POINT('',(0.,0.,-68.427));
#312=CARTESIAN_POINT('',(-0.819555367257167,0.,-68.427));
#313=CARTESIAN_POINT('',(0.,0.,-69.));
#314=CARTESIAN_POINT('',(0.,0.,-68.427));
#315=CARTESIAN_POINT('',(0.,0.,-68.427));
#316=CARTESIAN_POINT('',(-0.819555367257164,0.,-68.427));
#317=CARTESIAN_POINT('',(0.,0.,-68.427));
#318=CARTESIAN_POINT('',(0.,1.11022302462516E-16,-70.));
#319=CARTESIAN_POINT('',(0.,1.11022302462516E-16,-69.));
#320=MECHANICAL_DESIGN_GEOMETRIC_PRESENTATION_REPRESENTATION('',(#161,#162,
#163,#164,#165,#166,#167,#168,#169),#321);
#321=(
GEOMETRIC_REPRESENTATION_CONTEXT(3)
GLOBAL_UNCERTAINTY_ASSIGNED_CONTEXT((#322))
GLOBAL_UNIT_ASSIGNED_CONTEXT((#328,#324,#323))
REPRESENTATION_CONTEXT('TOOL','TOP_LEVEL_ASSEMBLY_PART')
);
#322=UNCERTAINTY_MEASURE_WITH_UNIT(LENGTH_MEASURE(0.0508),#328,
'DISTANCE_ACCURACY_VALUE','Maximum Tolerance applied to model');
#323=(
NAMED_UNIT(*)
SI_UNIT($,.STERADIAN.)
SOLID_ANGLE_UNIT()
);
#324=(
CONVERSION_BASED_UNIT('DEGREE',#326)
NAMED_UNIT(#325)
PLANE_ANGLE_UNIT()
);
#325=DIMENSIONAL_EXPONENTS(0.,0.,0.,0.,0.,0.,0.);
#326=PLANE_ANGLE_MEASURE_WITH_UNIT(PLANE_ANGLE_MEASURE(0.0174532925),#327);
#327=(
NAMED_UNIT(*)
PLANE_ANGLE_UNIT()
SI_UNIT($,.RADIAN.)
);
#328=(
LENGTH_UNIT()
NAMED_UNIT(*)
SI_UNIT(.MILLI.,.METRE.)
);
ENDSEC;
END-ISO-10303-21;
