ISO-10303-21;
HEADER;
/* Generated by software containing ST-Developer
 * from STEP Tools, Inc. (www.steptools.com) 
 */
/* OPTION: using custom schema-name function */

FILE_DESCRIPTION(
/* description */ (''),
/* implementation_level */ '2;1');

FILE_NAME(
/* name */ 'TOOLCOMP_1.STP',
/* time_stamp */ '2024-02-13T13:18:13+01:00',
/* author */ (''),
/* organization */ ('SMS'),
/* preprocessor_version */ 'ST-DEVELOPER v16.7',
/* originating_system */ 'SIEMENS PLM Software NX 12.0',
/* authorisation */ '');

FILE_SCHEMA (('AUTOMOTIVE_DESIGN { 1 0 10303 214 3 1 1 1 }'));
ENDSEC;

DATA;
#10=CONTEXT_DEPENDENT_SHAPE_REPRESENTATION(#12,#30);
#11=NEXT_ASSEMBLY_USAGE_OCCURRENCE('1001',' ',
'NOCUT_COMP20240213131711',#32,#31,$);
#12=(
REPRESENTATION_RELATIONSHIP(' ',' ',#45,#46)
REPRESENTATION_RELATIONSHIP_WITH_TRANSFORMATION(#13)
SHAPE_REPRESENTATION_RELATIONSHIP()
);
#13=ITEM_DEFINED_TRANSFORMATION(' ',' ',#307,#351);
#14=CONSTRUCTIVE_GEOMETRY_REPRESENTATION_RELATIONSHIP(
'supplemental geometry','',#45,#16);
#15=CONSTRUCTIVE_GEOMETRY_REPRESENTATION_RELATIONSHIP(
'supplemental geometry','',#46,#17);
#16=CONSTRUCTIVE_GEOMETRY_REPRESENTATION('supplemental geometry',(#330,
#331),#511);
#17=CONSTRUCTIVE_GEOMETRY_REPRESENTATION('supplemental geometry',(#308,
#309,#310),#510);
#18=GEOMETRICALLY_BOUNDED_WIREFRAME_SHAPE_REPRESENTATION(
'NOCUT_COMP20240213131711-None',(#47),#511);
#19=GEOMETRICALLY_BOUNDED_WIREFRAME_SHAPE_REPRESENTATION(
'TOOLCOMP_1-None',(#48),#510);
#20=SHAPE_REPRESENTATION_RELATIONSHIP('None',
'relationship between NOCUT_COMP20240213131711-None and NOCUT_COMP2024
0213131711-None',#45,#24);
#21=SHAPE_REPRESENTATION_RELATIONSHIP('None',
'relationship between NOCUT_COMP20240213131711-None and NOCUT_COMP2024
0213131711-None',#45,#18);
#22=SHAPE_REPRESENTATION_RELATIONSHIP('None',
'relationship between TOOLCOMP_1-None and TOOLCOMP_1-None',#46,#25);
#23=SHAPE_REPRESENTATION_RELATIONSHIP('None',
'relationship between TOOLCOMP_1-None and TOOLCOMP_1-None',#46,#19);
#24=ADVANCED_BREP_SHAPE_REPRESENTATION('NOCUT_COMP20240213131711-None',
(#60),#511);
#25=ADVANCED_BREP_SHAPE_REPRESENTATION('TOOLCOMP_1-None',(#59),#510);
#26=SHAPE_DEFINITION_REPRESENTATION(#28,#45);
#27=SHAPE_DEFINITION_REPRESENTATION(#29,#46);
#28=PRODUCT_DEFINITION_SHAPE('','',#31);
#29=PRODUCT_DEFINITION_SHAPE('','',#32);
#30=PRODUCT_DEFINITION_SHAPE(' ','NAUO PRDDFN',#11);
#31=PRODUCT_DEFINITION(' ','',#35,#33);
#32=PRODUCT_DEFINITION(' ','',#36,#34);
#33=PRODUCT_DEFINITION_CONTEXT('part definition',#44,'design');
#34=PRODUCT_DEFINITION_CONTEXT('part definition',#44,'design');
#35=PRODUCT_DEFINITION_FORMATION_WITH_SPECIFIED_SOURCE(' ',' ',#39,
 .NOT_KNOWN.);
#36=PRODUCT_DEFINITION_FORMATION_WITH_SPECIFIED_SOURCE(' ',' ',#40,
 .NOT_KNOWN.);
#37=PRODUCT_RELATED_PRODUCT_CATEGORY('part','',(#39));
#38=PRODUCT_RELATED_PRODUCT_CATEGORY('part','',(#40));
#39=PRODUCT('NOCUT_COMP20240213131711','NOCUT_COMP20240213131711',' ',(#41));
#40=PRODUCT('TOOLCOMP_1','TOOLCOMP_1',' ',(#42));
#41=PRODUCT_CONTEXT(' ',#44,'mechanical');
#42=PRODUCT_CONTEXT(' ',#44,'mechanical');
#43=APPLICATION_PROTOCOL_DEFINITION('international standard',
'automotive_design',2010,#44);
#44=APPLICATION_CONTEXT(
'core data for automotive mechanical design processes');
#45=SHAPE_REPRESENTATION('NOCUT_COMP20240213131711-None',(#307),#511);
#46=SHAPE_REPRESENTATION('TOOLCOMP_1-None',(#307,#351),#510);
#47=GEOMETRIC_CURVE_SET('None',(#476));
#48=GEOMETRIC_CURVE_SET('None',(#443,#444));
#49=SURFACE_STYLE_USAGE(.BOTH.,#51);
#50=SURFACE_STYLE_USAGE(.BOTH.,#52);
#51=SURFACE_SIDE_STYLE('',(#53));
#52=SURFACE_SIDE_STYLE('',(#54));
#53=SURFACE_STYLE_FILL_AREA(#55);
#54=SURFACE_STYLE_FILL_AREA(#56);
#55=FILL_AREA_STYLE('',(#57));
#56=FILL_AREA_STYLE('',(#58));
#57=FILL_AREA_STYLE_COLOUR('',#306);
#58=FILL_AREA_STYLE_COLOUR('',#306);
#59=MANIFOLD_SOLID_BREP('NOCUT',#61);
#60=MANIFOLD_SOLID_BREP('NOCUT',#62);
#61=CLOSED_SHELL('',(#77,#78,#79,#80,#81,#82,#83,#84,#85,#86));
#62=CLOSED_SHELL('',(#87,#88,#89,#90,#91,#92,#93,#94,#95,#96));
#63=CONICAL_SURFACE('',#320,37.5,2.86813194068667);
#64=CONICAL_SURFACE('',#329,47.35,60.);
#65=CONICAL_SURFACE('',#341,37.5,2.86813194068667);
#66=CONICAL_SURFACE('',#350,47.35,60.);
#67=FACE_OUTER_BOUND('',#145,.T.);
#68=FACE_OUTER_BOUND('',#150,.T.);
#69=FACE_OUTER_BOUND('',#163,.T.);
#70=FACE_OUTER_BOUND('',#168,.T.);
#71=CYLINDRICAL_SURFACE('',#317,50.);
#72=CYLINDRICAL_SURFACE('',#322,38.875);
#73=CYLINDRICAL_SURFACE('',#328,47.35);
#74=CYLINDRICAL_SURFACE('',#338,50.);
#75=CYLINDRICAL_SURFACE('',#343,38.875);
#76=CYLINDRICAL_SURFACE('',#349,47.35);
#77=ADVANCED_FACE('CU_FL_N2_SU_5',(#107,#108),#97,.T.);
#78=ADVANCED_FACE('CU_FL_N2_SU_1',(#109,#110),#98,.T.);
#79=ADVANCED_FACE('CU_FL_N2_SU_3',(#111,#112),#71,.T.);
#80=ADVANCED_FACE('CU_CO_N1_SU_3',(#67),#99,.F.);
#81=ADVANCED_FACE('CU_CO_N1_SU_1',(#113,#114),#63,.T.);
#82=ADVANCED_FACE('CU_OD_TR_N1_SU_6',(#115,#116),#72,.T.);
#83=ADVANCED_FACE('',(#68),#100,.T.);
#84=ADVANCED_FACE('',(#117,#118),#101,.T.);
#85=ADVANCED_FACE('',(#119,#120),#73,.T.);
#86=ADVANCED_FACE('',(#121,#122),#64,.T.);
#87=ADVANCED_FACE('CU_FL_N2_SU_5',(#123,#124),#102,.T.);
#88=ADVANCED_FACE('CU_FL_N2_SU_1',(#125,#126),#103,.T.);
#89=ADVANCED_FACE('CU_FL_N2_SU_3',(#127,#128),#74,.T.);
#90=ADVANCED_FACE('CU_CO_N1_SU_3',(#69),#104,.F.);
#91=ADVANCED_FACE('CU_CO_N1_SU_1',(#129,#130),#65,.T.);
#92=ADVANCED_FACE('CU_OD_TR_N1_SU_6',(#131,#132),#75,.T.);
#93=ADVANCED_FACE('',(#70),#105,.T.);
#94=ADVANCED_FACE('',(#133,#134),#106,.T.);
#95=ADVANCED_FACE('',(#135,#136),#76,.T.);
#96=ADVANCED_FACE('',(#137,#138),#66,.T.);
#97=PLANE('',#313);
#98=PLANE('',#316);
#99=PLANE('',#319);
#100=PLANE('',#324);
#101=PLANE('',#326);
#102=PLANE('',#334);
#103=PLANE('',#337);
#104=PLANE('',#340);
#105=PLANE('',#345);
#106=PLANE('',#347);
#107=FACE_BOUND('',#139,.T.);
#108=FACE_BOUND('',#140,.T.);
#109=FACE_BOUND('',#141,.T.);
#110=FACE_BOUND('',#142,.T.);
#111=FACE_BOUND('',#143,.T.);
#112=FACE_BOUND('',#144,.T.);
#113=FACE_BOUND('',#146,.T.);
#114=FACE_BOUND('',#147,.T.);
#115=FACE_BOUND('',#148,.T.);
#116=FACE_BOUND('',#149,.T.);
#117=FACE_BOUND('',#151,.T.);
#118=FACE_BOUND('',#152,.T.);
#119=FACE_BOUND('',#153,.T.);
#120=FACE_BOUND('',#154,.T.);
#121=FACE_BOUND('',#155,.T.);
#122=FACE_BOUND('',#156,.T.);
#123=FACE_BOUND('',#157,.T.);
#124=FACE_BOUND('',#158,.T.);
#125=FACE_BOUND('',#159,.T.);
#126=FACE_BOUND('',#160,.T.);
#127=FACE_BOUND('',#161,.T.);
#128=FACE_BOUND('',#162,.T.);
#129=FACE_BOUND('',#164,.T.);
#130=FACE_BOUND('',#165,.T.);
#131=FACE_BOUND('',#166,.T.);
#132=FACE_BOUND('',#167,.T.);
#133=FACE_BOUND('',#169,.T.);
#134=FACE_BOUND('',#170,.T.);
#135=FACE_BOUND('',#171,.T.);
#136=FACE_BOUND('',#172,.T.);
#137=FACE_BOUND('',#173,.T.);
#138=FACE_BOUND('',#174,.T.);
#139=EDGE_LOOP('',(#175));
#140=EDGE_LOOP('',(#176));
#141=EDGE_LOOP('',(#177));
#142=EDGE_LOOP('',(#178));
#143=EDGE_LOOP('',(#179));
#144=EDGE_LOOP('',(#180));
#145=EDGE_LOOP('',(#181));
#146=EDGE_LOOP('',(#182));
#147=EDGE_LOOP('',(#183));
#148=EDGE_LOOP('',(#184));
#149=EDGE_LOOP('',(#185));
#150=EDGE_LOOP('',(#186));
#151=EDGE_LOOP('',(#187));
#152=EDGE_LOOP('',(#188));
#153=EDGE_LOOP('',(#189));
#154=EDGE_LOOP('',(#190));
#155=EDGE_LOOP('',(#191));
#156=EDGE_LOOP('',(#192));
#157=EDGE_LOOP('',(#193));
#158=EDGE_LOOP('',(#194));
#159=EDGE_LOOP('',(#195));
#160=EDGE_LOOP('',(#196));
#161=EDGE_LOOP('',(#197));
#162=EDGE_LOOP('',(#198));
#163=EDGE_LOOP('',(#199));
#164=EDGE_LOOP('',(#200));
#165=EDGE_LOOP('',(#201));
#166=EDGE_LOOP('',(#202));
#167=EDGE_LOOP('',(#203));
#168=EDGE_LOOP('',(#204));
#169=EDGE_LOOP('',(#205));
#170=EDGE_LOOP('',(#206));
#171=EDGE_LOOP('',(#207));
#172=EDGE_LOOP('',(#208));
#173=EDGE_LOOP('',(#209));
#174=EDGE_LOOP('',(#210));
#175=ORIENTED_EDGE('',*,*,#229,.F.);
#176=ORIENTED_EDGE('',*,*,#230,.F.);
#177=ORIENTED_EDGE('',*,*,#231,.F.);
#178=ORIENTED_EDGE('',*,*,#232,.T.);
#179=ORIENTED_EDGE('',*,*,#230,.T.);
#180=ORIENTED_EDGE('',*,*,#232,.F.);
#181=ORIENTED_EDGE('',*,*,#233,.F.);
#182=ORIENTED_EDGE('',*,*,#231,.T.);
#183=ORIENTED_EDGE('',*,*,#233,.T.);
#184=ORIENTED_EDGE('',*,*,#234,.F.);
#185=ORIENTED_EDGE('',*,*,#229,.T.);
#186=ORIENTED_EDGE('',*,*,#235,.F.);
#187=ORIENTED_EDGE('',*,*,#234,.T.);
#188=ORIENTED_EDGE('',*,*,#236,.T.);
#189=ORIENTED_EDGE('',*,*,#237,.T.);
#190=ORIENTED_EDGE('',*,*,#236,.F.);
#191=ORIENTED_EDGE('',*,*,#235,.T.);
#192=ORIENTED_EDGE('',*,*,#237,.F.);
#193=ORIENTED_EDGE('',*,*,#238,.F.);
#194=ORIENTED_EDGE('',*,*,#239,.F.);
#195=ORIENTED_EDGE('',*,*,#240,.F.);
#196=ORIENTED_EDGE('',*,*,#241,.T.);
#197=ORIENTED_EDGE('',*,*,#239,.T.);
#198=ORIENTED_EDGE('',*,*,#241,.F.);
#199=ORIENTED_EDGE('',*,*,#242,.F.);
#200=ORIENTED_EDGE('',*,*,#240,.T.);
#201=ORIENTED_EDGE('',*,*,#242,.T.);
#202=ORIENTED_EDGE('',*,*,#243,.F.);
#203=ORIENTED_EDGE('',*,*,#238,.T.);
#204=ORIENTED_EDGE('',*,*,#244,.F.);
#205=ORIENTED_EDGE('',*,*,#243,.T.);
#206=ORIENTED_EDGE('',*,*,#245,.T.);
#207=ORIENTED_EDGE('',*,*,#246,.T.);
#208=ORIENTED_EDGE('',*,*,#245,.F.);
#209=ORIENTED_EDGE('',*,*,#244,.T.);
#210=ORIENTED_EDGE('',*,*,#246,.F.);
#211=VERTEX_POINT('',#449);
#212=VERTEX_POINT('',#451);
#213=VERTEX_POINT('',#454);
#214=VERTEX_POINT('',#456);
#215=VERTEX_POINT('',#460);
#216=VERTEX_POINT('',#464);
#217=VERTEX_POINT('',#467);
#218=VERTEX_POINT('',#470);
#219=VERTEX_POINT('',#473);
#220=VERTEX_POINT('',#480);
#221=VERTEX_POINT('',#482);
#222=VERTEX_POINT('',#485);
#223=VERTEX_POINT('',#487);
#224=VERTEX_POINT('',#491);
#225=VERTEX_POINT('',#495);
#226=VERTEX_POINT('',#498);
#227=VERTEX_POINT('',#501);
#228=VERTEX_POINT('',#504);
#229=EDGE_CURVE('',#211,#211,#247,.T.);
#230=EDGE_CURVE('',#212,#212,#248,.T.);
#231=EDGE_CURVE('',#213,#213,#249,.T.);
#232=EDGE_CURVE('',#214,#214,#250,.T.);
#233=EDGE_CURVE('',#215,#215,#251,.T.);
#234=EDGE_CURVE('',#216,#216,#252,.T.);
#235=EDGE_CURVE('',#217,#217,#253,.T.);
#236=EDGE_CURVE('',#218,#218,#254,.T.);
#237=EDGE_CURVE('',#219,#219,#255,.T.);
#238=EDGE_CURVE('',#220,#220,#256,.T.);
#239=EDGE_CURVE('',#221,#221,#257,.T.);
#240=EDGE_CURVE('',#222,#222,#258,.T.);
#241=EDGE_CURVE('',#223,#223,#259,.T.);
#242=EDGE_CURVE('',#224,#224,#260,.T.);
#243=EDGE_CURVE('',#225,#225,#261,.T.);
#244=EDGE_CURVE('',#226,#226,#262,.T.);
#245=EDGE_CURVE('',#227,#227,#263,.T.);
#246=EDGE_CURVE('',#228,#228,#264,.T.);
#247=CIRCLE('',#311,38.875);
#248=CIRCLE('',#312,50.);
#249=CIRCLE('',#314,38.001002004008);
#250=CIRCLE('',#315,50.);
#251=CIRCLE('',#318,35.4959919839679);
#252=CIRCLE('',#321,38.875);
#253=CIRCLE('',#323,41.);
#254=CIRCLE('',#325,47.35);
#255=CIRCLE('',#327,47.35);
#256=CIRCLE('',#332,38.875);
#257=CIRCLE('',#333,50.);
#258=CIRCLE('',#335,38.001002004008);
#259=CIRCLE('',#336,50.);
#260=CIRCLE('',#339,35.4959919839679);
#261=CIRCLE('',#342,38.875);
#262=CIRCLE('',#344,41.);
#263=CIRCLE('',#346,47.35);
#264=CIRCLE('',#348,47.35);
#265=CURVE_STYLE('',#270,POSITIVE_LENGTH_MEASURE(0.13),#304);
#266=CURVE_STYLE('',#271,POSITIVE_LENGTH_MEASURE(0.18),#305);
#267=CURVE_STYLE('',#272,POSITIVE_LENGTH_MEASURE(0.18),#304);
#268=CURVE_STYLE('',#273,POSITIVE_LENGTH_MEASURE(0.13),#302);
#269=CURVE_STYLE('',#274,POSITIVE_LENGTH_MEASURE(0.18),#303);
#270=DRAUGHTING_PRE_DEFINED_CURVE_FONT('continuous');
#271=DRAUGHTING_PRE_DEFINED_CURVE_FONT('continuous');
#272=DRAUGHTING_PRE_DEFINED_CURVE_FONT('continuous');
#273=DRAUGHTING_PRE_DEFINED_CURVE_FONT('continuous');
#274=DRAUGHTING_PRE_DEFINED_CURVE_FONT('continuous');
#275=PRESENTATION_LAYER_ASSIGNMENT('1','Layer 1',(#443,#444,#308,#309,#310,
#59,#476,#330,#331,#60));
#276=STYLED_ITEM('',(#286),#443);
#277=STYLED_ITEM('',(#287),#444);
#278=STYLED_ITEM('',(#288),#308);
#279=STYLED_ITEM('',(#289),#309);
#280=STYLED_ITEM('',(#290),#310);
#281=STYLED_ITEM('',(#291),#59);
#282=STYLED_ITEM('',(#292),#476);
#283=STYLED_ITEM('',(#293),#330);
#284=STYLED_ITEM('',(#294),#331);
#285=STYLED_ITEM('',(#295),#60);
#286=PRESENTATION_STYLE_ASSIGNMENT((#296));
#287=PRESENTATION_STYLE_ASSIGNMENT((#297));
#288=PRESENTATION_STYLE_ASSIGNMENT((#265));
#289=PRESENTATION_STYLE_ASSIGNMENT((#266));
#290=PRESENTATION_STYLE_ASSIGNMENT((#267));
#291=PRESENTATION_STYLE_ASSIGNMENT((#49));
#292=PRESENTATION_STYLE_ASSIGNMENT((#298));
#293=PRESENTATION_STYLE_ASSIGNMENT((#268));
#294=PRESENTATION_STYLE_ASSIGNMENT((#269));
#295=PRESENTATION_STYLE_ASSIGNMENT((#50));
#296=POINT_STYLE('',#299,POSITIVE_LENGTH_MEASURE(3.),#302);
#297=POINT_STYLE('',#300,POSITIVE_LENGTH_MEASURE(3.),#303);
#298=POINT_STYLE('',#301,POSITIVE_LENGTH_MEASURE(3.),#303);
#299=PRE_DEFINED_POINT_MARKER_SYMBOL('plus');
#300=PRE_DEFINED_POINT_MARKER_SYMBOL('plus');
#301=PRE_DEFINED_POINT_MARKER_SYMBOL('plus');
#302=COLOUR_RGB('Silver Gray',0.6,0.6,0.6);
#303=COLOUR_RGB('Medium Maroon',0.6,0.4,0.4);
#304=COLOUR_RGB('Pale Sky',0.882337682154574,0.960769054703594,1.);
#305=COLOUR_RGB('Strong Emerald',0.,0.803921568627451,0.525490196078431);
#306=COLOUR_RGB('TLS_NOCUT',0.498023956664378,0.498023956664378,0.498023956664378);
#307=AXIS2_PLACEMENT_3D('',#442,#352,#353);
#308=AXIS2_PLACEMENT_3D('PCS',#445,#354,#355);
#309=AXIS2_PLACEMENT_3D('CSW',#446,#356,#357);
#310=AXIS2_PLACEMENT_3D('MCS',#447,#358,#359);
#311=AXIS2_PLACEMENT_3D('',#448,#360,#361);
#312=AXIS2_PLACEMENT_3D('',#450,#362,#363);
#313=AXIS2_PLACEMENT_3D('',#452,#364,#365);
#314=AXIS2_PLACEMENT_3D('',#453,#366,#367);
#315=AXIS2_PLACEMENT_3D('',#455,#368,#369);
#316=AXIS2_PLACEMENT_3D('',#457,#370,#371);
#317=AXIS2_PLACEMENT_3D('',#458,#372,#373);
#318=AXIS2_PLACEMENT_3D('',#459,#374,#375);
#319=AXIS2_PLACEMENT_3D('',#461,#376,#377);
#320=AXIS2_PLACEMENT_3D('',#462,#378,#379);
#321=AXIS2_PLACEMENT_3D('',#463,#380,#381);
#322=AXIS2_PLACEMENT_3D('',#465,#382,#383);
#323=AXIS2_PLACEMENT_3D('',#466,#384,#385);
#324=AXIS2_PLACEMENT_3D('',#468,#386,#387);
#325=AXIS2_PLACEMENT_3D('',#469,#388,#389);
#326=AXIS2_PLACEMENT_3D('',#471,#390,#391);
#327=AXIS2_PLACEMENT_3D('',#472,#392,#393);
#328=AXIS2_PLACEMENT_3D('',#474,#394,#395);
#329=AXIS2_PLACEMENT_3D('',#475,#396,#397);
#330=AXIS2_PLACEMENT_3D('PCS',#477,#398,#399);
#331=AXIS2_PLACEMENT_3D('MCS',#478,#400,#401);
#332=AXIS2_PLACEMENT_3D('',#479,#402,#403);
#333=AXIS2_PLACEMENT_3D('',#481,#404,#405);
#334=AXIS2_PLACEMENT_3D('',#483,#406,#407);
#335=AXIS2_PLACEMENT_3D('',#484,#408,#409);
#336=AXIS2_PLACEMENT_3D('',#486,#410,#411);
#337=AXIS2_PLACEMENT_3D('',#488,#412,#413);
#338=AXIS2_PLACEMENT_3D('',#489,#414,#415);
#339=AXIS2_PLACEMENT_3D('',#490,#416,#417);
#340=AXIS2_PLACEMENT_3D('',#492,#418,#419);
#341=AXIS2_PLACEMENT_3D('',#493,#420,#421);
#342=AXIS2_PLACEMENT_3D('',#494,#422,#423);
#343=AXIS2_PLACEMENT_3D('',#496,#424,#425);
#344=AXIS2_PLACEMENT_3D('',#497,#426,#427);
#345=AXIS2_PLACEMENT_3D('',#499,#428,#429);
#346=AXIS2_PLACEMENT_3D('',#500,#430,#431);
#347=AXIS2_PLACEMENT_3D('',#502,#432,#433);
#348=AXIS2_PLACEMENT_3D('',#503,#434,#435);
#349=AXIS2_PLACEMENT_3D('',#505,#436,#437);
#350=AXIS2_PLACEMENT_3D('',#506,#438,#439);
#351=AXIS2_PLACEMENT_3D('',#507,#440,#441);
#352=DIRECTION('',(0.,0.,1.));
#353=DIRECTION('',(1.,0.,0.));
#354=DIRECTION('',(0.,0.,1.));
#355=DIRECTION('',(1.,0.,0.));
#356=DIRECTION('',(0.,0.,1.));
#357=DIRECTION('',(1.,0.,0.));
#358=DIRECTION('',(0.,0.,1.));
#359=DIRECTION('',(1.,0.,0.));
#360=DIRECTION('',(0.,0.,-1.));
#361=DIRECTION('',(-1.,0.,0.));
#362=DIRECTION('',(0.,0.,1.));
#363=DIRECTION('',(1.,0.,0.));
#364=DIRECTION('',(0.,0.,-1.));
#365=DIRECTION('',(-1.,0.,0.));
#366=DIRECTION('',(0.,0.,1.));
#367=DIRECTION('',(1.,0.,0.));
#368=DIRECTION('',(0.,0.,1.));
#369=DIRECTION('',(1.,0.,0.));
#370=DIRECTION('',(0.,0.,1.));
#371=DIRECTION('',(1.,0.,0.));
#372=DIRECTION('',(0.,0.,1.));
#373=DIRECTION('',(1.,0.,0.));
#374=DIRECTION('',(0.,0.,-1.));
#375=DIRECTION('',(-1.,0.,0.));
#376=DIRECTION('',(0.,0.,-1.));
#377=DIRECTION('',(-1.,0.,0.));
#378=DIRECTION('',(0.,0.,-1.));
#379=DIRECTION('',(-1.,0.,4.7526561849124E-16));
#380=DIRECTION('',(0.,0.,-1.));
#381=DIRECTION('',(1.,0.,0.));
#382=DIRECTION('',(0.,0.,1.));
#383=DIRECTION('',(1.,0.,0.));
#384=DIRECTION('',(0.,0.,1.));
#385=DIRECTION('',(1.,0.,0.));
#386=DIRECTION('',(0.,0.,-1.));
#387=DIRECTION('',(-1.,0.,0.));
#388=DIRECTION('',(0.,0.,1.));
#389=DIRECTION('',(1.,0.,0.));
#390=DIRECTION('',(0.,0.,1.));
#391=DIRECTION('',(1.,0.,0.));
#392=DIRECTION('',(0.,0.,1.));
#393=DIRECTION('',(1.,0.,0.));
#394=DIRECTION('',(0.,0.,1.));
#395=DIRECTION('',(1.,0.,0.));
#396=DIRECTION('',(0.,0.,1.));
#397=DIRECTION('',(1.,0.,-2.33974061641151E-17));
#398=DIRECTION('',(0.,0.,1.));
#399=DIRECTION('',(1.,0.,0.));
#400=DIRECTION('',(0.,0.,1.));
#401=DIRECTION('',(1.,0.,0.));
#402=DIRECTION('',(0.,0.,-1.));
#403=DIRECTION('',(-1.,0.,0.));
#404=DIRECTION('',(0.,0.,1.));
#405=DIRECTION('',(1.,0.,0.));
#406=DIRECTION('',(0.,0.,-1.));
#407=DIRECTION('',(-1.,0.,0.));
#408=DIRECTION('',(0.,0.,1.));
#409=DIRECTION('',(1.,0.,0.));
#410=DIRECTION('',(0.,0.,1.));
#411=DIRECTION('',(1.,0.,0.));
#412=DIRECTION('',(0.,0.,1.));
#413=DIRECTION('',(1.,0.,0.));
#414=DIRECTION('',(0.,0.,1.));
#415=DIRECTION('',(1.,0.,0.));
#416=DIRECTION('',(0.,0.,-1.));
#417=DIRECTION('',(-1.,0.,0.));
#418=DIRECTION('',(0.,0.,-1.));
#419=DIRECTION('',(-1.,0.,0.));
#420=DIRECTION('',(0.,0.,-1.));
#421=DIRECTION('',(-1.,0.,4.7526561849124E-16));
#422=DIRECTION('',(0.,0.,-1.));
#423=DIRECTION('',(1.,0.,0.));
#424=DIRECTION('',(0.,0.,1.));
#425=DIRECTION('',(1.,0.,0.));
#426=DIRECTION('',(0.,0.,1.));
#427=DIRECTION('',(1.,0.,0.));
#428=DIRECTION('',(0.,0.,-1.));
#429=DIRECTION('',(-1.,0.,0.));
#430=DIRECTION('',(0.,0.,1.));
#431=DIRECTION('',(1.,0.,0.));
#432=DIRECTION('',(0.,0.,1.));
#433=DIRECTION('',(1.,0.,0.));
#434=DIRECTION('',(0.,0.,1.));
#435=DIRECTION('',(1.,0.,0.));
#436=DIRECTION('',(0.,0.,1.));
#437=DIRECTION('',(1.,0.,0.));
#438=DIRECTION('',(0.,0.,1.));
#439=DIRECTION('',(1.,0.,-2.33974061641151E-17));
#440=DIRECTION('',(0.,0.,1.));
#441=DIRECTION('',(1.,0.,0.));
#442=CARTESIAN_POINT('',(0.,0.,0.));
#443=CARTESIAN_POINT('',(0.,0.,0.));
#444=CARTESIAN_POINT('',(0.,0.,0.));
#445=CARTESIAN_POINT('',(0.,0.,0.));
#446=CARTESIAN_POINT('',(0.,0.,-55.));
#447=CARTESIAN_POINT('',(0.,0.,0.));
#448=CARTESIAN_POINT('',(0.,0.,-29.));
#449=CARTESIAN_POINT('',(-38.875,0.,-29.));
#450=CARTESIAN_POINT('',(0.,0.,-29.));
#451=CARTESIAN_POINT('',(50.,0.,-29.));
#452=CARTESIAN_POINT('',(-50.,0.,-29.));
#453=CARTESIAN_POINT('',(0.,0.,0.));
#454=CARTESIAN_POINT('',(38.001002004008,0.,0.));
#455=CARTESIAN_POINT('',(0.,0.,0.));
#456=CARTESIAN_POINT('',(50.,0.,0.));
#457=CARTESIAN_POINT('',(0.,0.,0.));
#458=CARTESIAN_POINT('',(0.,0.,20.9080749503476));
#459=CARTESIAN_POINT('',(0.,0.,50.));
#460=CARTESIAN_POINT('',(-35.4959919839679,0.,50.));
#461=CARTESIAN_POINT('',(0.,0.,50.));
#462=CARTESIAN_POINT('',(0.,0.,9.99999999999997));
#463=CARTESIAN_POINT('',(0.,0.,-46.));
#464=CARTESIAN_POINT('',(38.875,0.,-46.));
#465=CARTESIAN_POINT('',(0.,0.,20.9080749503476));
#466=CARTESIAN_POINT('',(0.,0.,-69.));
#467=CARTESIAN_POINT('',(41.,0.,-69.));
#468=CARTESIAN_POINT('',(0.,41.,-69.));
#469=CARTESIAN_POINT('',(0.,0.,-46.));
#470=CARTESIAN_POINT('',(47.35,0.,-46.));
#471=CARTESIAN_POINT('',(0.,39.25,-46.));
#472=CARTESIAN_POINT('',(0.,0.,-65.3338257906459));
#473=CARTESIAN_POINT('',(47.35,0.,-65.3338257906459));
#474=CARTESIAN_POINT('',(0.,0.,-46.));
#475=CARTESIAN_POINT('',(0.,0.,-65.3338257906459));
#476=CARTESIAN_POINT('',(0.,0.,0.));
#477=CARTESIAN_POINT('',(0.,0.,0.));
#478=CARTESIAN_POINT('',(0.,0.,0.));
#479=CARTESIAN_POINT('',(0.,0.,-29.));
#480=CARTESIAN_POINT('',(-38.875,0.,-29.));
#481=CARTESIAN_POINT('',(0.,0.,-29.));
#482=CARTESIAN_POINT('',(50.,0.,-29.));
#483=CARTESIAN_POINT('',(-50.,0.,-29.));
#484=CARTESIAN_POINT('',(0.,0.,0.));
#485=CARTESIAN_POINT('',(38.001002004008,0.,0.));
#486=CARTESIAN_POINT('',(0.,0.,0.));
#487=CARTESIAN_POINT('',(50.,0.,0.));
#488=CARTESIAN_POINT('',(0.,0.,0.));
#489=CARTESIAN_POINT('',(0.,0.,20.9080749503476));
#490=CARTESIAN_POINT('',(0.,0.,50.));
#491=CARTESIAN_POINT('',(-35.4959919839679,0.,50.));
#492=CARTESIAN_POINT('',(0.,0.,50.));
#493=CARTESIAN_POINT('',(0.,0.,9.99999999999997));
#494=CARTESIAN_POINT('',(0.,0.,-46.));
#495=CARTESIAN_POINT('',(38.875,0.,-46.));
#496=CARTESIAN_POINT('',(0.,0.,20.9080749503476));
#497=CARTESIAN_POINT('',(0.,0.,-69.));
#498=CARTESIAN_POINT('',(41.,0.,-69.));
#499=CARTESIAN_POINT('',(0.,41.,-69.));
#500=CARTESIAN_POINT('',(0.,0.,-46.));
#501=CARTESIAN_POINT('',(47.35,0.,-46.));
#502=CARTESIAN_POINT('',(0.,39.25,-46.));
#503=CARTESIAN_POINT('',(0.,0.,-65.3338257906459));
#504=CARTESIAN_POINT('',(47.35,0.,-65.3338257906459));
#505=CARTESIAN_POINT('',(0.,0.,-46.));
#506=CARTESIAN_POINT('',(0.,0.,-65.3338257906459));
#507=CARTESIAN_POINT('',(0.,0.,0.));
#508=MECHANICAL_DESIGN_GEOMETRIC_PRESENTATION_REPRESENTATION('',(#276,#277,
#278,#279,#280,#281),#510);
#509=MECHANICAL_DESIGN_GEOMETRIC_PRESENTATION_REPRESENTATION('',(#282,#283,
#284,#285),#511);
#510=(
GEOMETRIC_REPRESENTATION_CONTEXT(3)
GLOBAL_UNCERTAINTY_ASSIGNED_CONTEXT((#512))
GLOBAL_UNIT_ASSIGNED_CONTEXT((#519,#515,#514))
REPRESENTATION_CONTEXT('TOOLCOMP_1','TOP_LEVEL_ASSEMBLY_PART')
);
#511=(
GEOMETRIC_REPRESENTATION_CONTEXT(3)
GLOBAL_UNCERTAINTY_ASSIGNED_CONTEXT((#513))
GLOBAL_UNIT_ASSIGNED_CONTEXT((#519,#515,#514))
REPRESENTATION_CONTEXT('NOCUT_COMP20240213131711','COMPONENT_PART')
);
#512=UNCERTAINTY_MEASURE_WITH_UNIT(LENGTH_MEASURE(2.E-5),#519,
'DISTANCE_ACCURACY_VALUE','Maximum Tolerance applied to model');
#513=UNCERTAINTY_MEASURE_WITH_UNIT(LENGTH_MEASURE(2.E-5),#519,
'DISTANCE_ACCURACY_VALUE','Maximum Tolerance applied to model');
#514=(
NAMED_UNIT(*)
SI_UNIT($,.STERADIAN.)
SOLID_ANGLE_UNIT()
);
#515=(
CONVERSION_BASED_UNIT('DEGREE',#517)
NAMED_UNIT(#516)
PLANE_ANGLE_UNIT()
);
#516=DIMENSIONAL_EXPONENTS(0.,0.,0.,0.,0.,0.,0.);
#517=PLANE_ANGLE_MEASURE_WITH_UNIT(PLANE_ANGLE_MEASURE(0.0174532925),#518);
#518=(
NAMED_UNIT(*)
PLANE_ANGLE_UNIT()
SI_UNIT($,.RADIAN.)
);
#519=(
LENGTH_UNIT()
NAMED_UNIT(*)
SI_UNIT(.MILLI.,.METRE.)
);
ENDSEC;
END-ISO-10303-21;
