ISO-10303-21;
HEADER;
/* Generated by software containing ST-Developer
 * from STEP Tools, Inc. (www.steptools.com) 
 */
/* OPTION: using custom schema-name function */

FILE_DESCRIPTION(
/* description */ (''),
/* implementation_level */ '2;1');

FILE_NAME(
/* name */ 'TOOL.STP',
/* time_stamp */ '2024-01-16T05:47:15+01:00',
/* author */ (''),
/* organization */ ('SMS'),
/* preprocessor_version */ 'ST-DEVELOPER v16.7',
/* originating_system */ 'SIEMENS PLM Software NX 12.0',
/* authorisation */ '');

FILE_SCHEMA (('AUTOMOTIVE_DESIGN { 1 0 10303 214 3 1 1 1 }'));
ENDSEC;

DATA;
#10=CONSTRUCTIVE_GEOMETRY_REPRESENTATION_RELATIONSHIP(
'supplemental geometry','',#26,#11);
#11=CONSTRUCTIVE_GEOMETRY_REPRESENTATION('supplemental geometry',(#176,
#177,#178),#288);
#12=GEOMETRICALLY_BOUNDED_WIREFRAME_SHAPE_REPRESENTATION('Tool-None',(#27),
#288);
#13=SHAPE_REPRESENTATION_RELATIONSHIP('None',
'relationship between Tool-None and Tool-None',#26,#15);
#14=SHAPE_REPRESENTATION_RELATIONSHIP('None',
'relationship between Tool-None and Tool-None',#26,#12);
#15=ADVANCED_BREP_SHAPE_REPRESENTATION('Tool-None',(#39,#40),#288);
#16=SHAPE_DEFINITION_REPRESENTATION(#17,#26);
#17=PRODUCT_DEFINITION_SHAPE('','',#18);
#18=PRODUCT_DEFINITION(' ','',#20,#19);
#19=PRODUCT_DEFINITION_CONTEXT('part definition',#25,'design');
#20=PRODUCT_DEFINITION_FORMATION_WITH_SPECIFIED_SOURCE(' ',' ',#22,
 .NOT_KNOWN.);
#21=PRODUCT_RELATED_PRODUCT_CATEGORY('part','',(#22));
#22=PRODUCT('Tool','Tool',' ',(#23));
#23=PRODUCT_CONTEXT(' ',#25,'mechanical');
#24=APPLICATION_PROTOCOL_DEFINITION('international standard',
'automotive_design',2010,#25);
#25=APPLICATION_CONTEXT(
'core data for automotive mechanical design processes');
#26=SHAPE_REPRESENTATION('Tool-None',(#175),#288);
#27=GEOMETRIC_CURVE_SET('None',(#242,#243,#244,#142));
#28=SPHERICAL_SURFACE('',#195,1.5875);
#29=SURFACE_STYLE_USAGE(.BOTH.,#31);
#30=SURFACE_STYLE_USAGE(.BOTH.,#32);
#31=SURFACE_SIDE_STYLE('',(#33));
#32=SURFACE_SIDE_STYLE('',(#34));
#33=SURFACE_STYLE_FILL_AREA(#35);
#34=SURFACE_STYLE_FILL_AREA(#36);
#35=FILL_AREA_STYLE('',(#37));
#36=FILL_AREA_STYLE('',(#38));
#37=FILL_AREA_STYLE_COLOUR('',#173);
#38=FILL_AREA_STYLE_COLOUR('',#174);
#39=MANIFOLD_SOLID_BREP('NOCUT',#41);
#40=MANIFOLD_SOLID_BREP('CUT',#42);
#41=CLOSED_SHELL('',(#54,#55,#56,#57,#58,#59,#60));
#42=CLOSED_SHELL('',(#61,#62,#63));
#43=TOROIDAL_SURFACE('',#186,2.6125,1.);
#44=CYLINDRICAL_SURFACE('',#185,1.6125);
#45=CYLINDRICAL_SURFACE('',#190,3.175);
#46=CYLINDRICAL_SURFACE('',#196,1.5875);
#47=PLANE('',#183);
#48=PLANE('',#188);
#49=PLANE('',#193);
#50=FACE_OUTER_BOUND('',#80,.T.);
#51=FACE_OUTER_BOUND('',#85,.T.);
#52=FACE_OUTER_BOUND('',#90,.T.);
#53=FACE_OUTER_BOUND('',#91,.T.);
#54=ADVANCED_FACE('',(#66,#67),#64,.T.);
#55=ADVANCED_FACE('',(#50),#47,.F.);
#56=ADVANCED_FACE('',(#68,#69),#44,.T.);
#57=ADVANCED_FACE('',(#70,#71),#43,.F.);
#58=ADVANCED_FACE('',(#51),#48,.F.);
#59=ADVANCED_FACE('',(#72,#73),#45,.T.);
#60=ADVANCED_FACE('',(#74,#75),#65,.T.);
#61=ADVANCED_FACE('',(#52),#49,.T.);
#62=ADVANCED_FACE('',(#53),#28,.T.);
#63=ADVANCED_FACE('',(#76,#77),#46,.T.);
#64=CONICAL_SURFACE('',#181,1.6125,30.);
#65=CONICAL_SURFACE('',#191,2.775,45.);
#66=FACE_BOUND('',#78,.T.);
#67=FACE_BOUND('',#79,.T.);
#68=FACE_BOUND('',#81,.T.);
#69=FACE_BOUND('',#82,.T.);
#70=FACE_BOUND('',#83,.T.);
#71=FACE_BOUND('',#84,.T.);
#72=FACE_BOUND('',#86,.T.);
#73=FACE_BOUND('',#87,.T.);
#74=FACE_BOUND('',#88,.T.);
#75=FACE_BOUND('',#89,.T.);
#76=FACE_BOUND('',#92,.T.);
#77=FACE_BOUND('',#93,.T.);
#78=EDGE_LOOP('',(#94));
#79=EDGE_LOOP('',(#95));
#80=EDGE_LOOP('',(#96));
#81=EDGE_LOOP('',(#97));
#82=EDGE_LOOP('',(#98));
#83=EDGE_LOOP('',(#99));
#84=EDGE_LOOP('',(#100));
#85=EDGE_LOOP('',(#101));
#86=EDGE_LOOP('',(#102));
#87=EDGE_LOOP('',(#103));
#88=EDGE_LOOP('',(#104));
#89=EDGE_LOOP('',(#105));
#90=EDGE_LOOP('',(#106));
#91=EDGE_LOOP('',(#107));
#92=EDGE_LOOP('',(#108));
#93=EDGE_LOOP('',(#109));
#94=ORIENTED_EDGE('',*,*,#118,.T.);
#95=ORIENTED_EDGE('',*,*,#119,.F.);
#96=ORIENTED_EDGE('',*,*,#120,.F.);
#97=ORIENTED_EDGE('',*,*,#121,.T.);
#98=ORIENTED_EDGE('',*,*,#120,.T.);
#99=ORIENTED_EDGE('',*,*,#121,.F.);
#100=ORIENTED_EDGE('',*,*,#118,.F.);
#101=ORIENTED_EDGE('',*,*,#122,.T.);
#102=ORIENTED_EDGE('',*,*,#123,.T.);
#103=ORIENTED_EDGE('',*,*,#119,.T.);
#104=ORIENTED_EDGE('',*,*,#123,.F.);
#105=ORIENTED_EDGE('',*,*,#122,.F.);
#106=ORIENTED_EDGE('',*,*,#124,.T.);
#107=ORIENTED_EDGE('',*,*,#125,.F.);
#108=ORIENTED_EDGE('',*,*,#125,.T.);
#109=ORIENTED_EDGE('',*,*,#124,.F.);
#110=VERTEX_POINT('',#262);
#111=VERTEX_POINT('',#264);
#112=VERTEX_POINT('',#267);
#113=VERTEX_POINT('',#270);
#114=VERTEX_POINT('',#274);
#115=VERTEX_POINT('',#277);
#116=VERTEX_POINT('',#281);
#117=VERTEX_POINT('',#284);
#118=EDGE_CURVE('',#110,#110,#126,.T.);
#119=EDGE_CURVE('',#111,#111,#127,.T.);
#120=EDGE_CURVE('',#112,#112,#128,.T.);
#121=EDGE_CURVE('',#113,#113,#129,.T.);
#122=EDGE_CURVE('',#114,#114,#130,.T.);
#123=EDGE_CURVE('',#115,#115,#131,.T.);
#124=EDGE_CURVE('',#116,#116,#132,.T.);
#125=EDGE_CURVE('',#117,#117,#133,.T.);
#126=CIRCLE('',#179,1.74647459621556);
#127=CIRCLE('',#180,3.175);
#128=CIRCLE('',#182,1.6125);
#129=CIRCLE('',#184,1.6125);
#130=CIRCLE('',#187,2.775);
#131=CIRCLE('',#189,3.175);
#132=CIRCLE('',#192,1.5875);
#133=CIRCLE('',#194,1.5875);
#134=CURVE_STYLE('',#138,POSITIVE_LENGTH_MEASURE(0.18),#145);
#135=CURVE_STYLE('',#139,POSITIVE_LENGTH_MEASURE(0.13),#172);
#136=CURVE_STYLE('',#140,POSITIVE_LENGTH_MEASURE(0.18),#171);
#137=CURVE_STYLE('',#141,POSITIVE_LENGTH_MEASURE(0.18),#171);
#138=DRAUGHTING_PRE_DEFINED_CURVE_FONT('continuous');
#139=DRAUGHTING_PRE_DEFINED_CURVE_FONT('continuous');
#140=DRAUGHTING_PRE_DEFINED_CURVE_FONT('continuous');
#141=DRAUGHTING_PRE_DEFINED_CURVE_FONT('continuous');
#142=TRIMMED_CURVE('CUTTING PART LINE',#143,(PARAMETER_VALUE(0.)),(
PARAMETER_VALUE(1.)),.T.,.PARAMETER.);
#143=(
BOUNDED_CURVE()
B_SPLINE_CURVE(3,(#245,#246,#247,#248,#249,#250,#251,#252,#253,#254,#255,
#256,#257),.UNSPECIFIED.,.T.,.F.)
B_SPLINE_CURVE_WITH_KNOTS((4,3,3,3,4),(0.,0.13207551222895,0.528343647494011,
0.735807376955571,1.),.UNSPECIFIED.)
CURVE()
GEOMETRIC_REPRESENTATION_ITEM()
RATIONAL_B_SPLINE_CURVE((1.,1.,1.,1.,1.,1.,1.,0.804737854124366,0.804737854124366,
1.,1.,1.,1.))
REPRESENTATION_ITEM('CUTTING PART LINE')
);
#144=DRAUGHTING_PRE_DEFINED_COLOUR('white');
#145=DRAUGHTING_PRE_DEFINED_COLOUR('blue');
#146=PRESENTATION_LAYER_ASSIGNMENT('1','Layer 1',(#242,#243,#244,#142,#176,
#177,#178,#39,#40));
#147=STYLED_ITEM('',(#156),#242);
#148=STYLED_ITEM('',(#157),#243);
#149=STYLED_ITEM('',(#158),#244);
#150=STYLED_ITEM('',(#159),#142);
#151=STYLED_ITEM('',(#160),#176);
#152=STYLED_ITEM('',(#161),#177);
#153=STYLED_ITEM('',(#162),#178);
#154=STYLED_ITEM('',(#163),#39);
#155=STYLED_ITEM('',(#164),#40);
#156=PRESENTATION_STYLE_ASSIGNMENT((#165));
#157=PRESENTATION_STYLE_ASSIGNMENT((#166));
#158=PRESENTATION_STYLE_ASSIGNMENT((#167));
#159=PRESENTATION_STYLE_ASSIGNMENT((#134));
#160=PRESENTATION_STYLE_ASSIGNMENT((#135));
#161=PRESENTATION_STYLE_ASSIGNMENT((#136));
#162=PRESENTATION_STYLE_ASSIGNMENT((#137));
#163=PRESENTATION_STYLE_ASSIGNMENT((#29));
#164=PRESENTATION_STYLE_ASSIGNMENT((#30));
#165=POINT_STYLE('',#168,POSITIVE_LENGTH_MEASURE(3.),#171);
#166=POINT_STYLE('',#169,POSITIVE_LENGTH_MEASURE(3.),#144);
#167=POINT_STYLE('',#170,POSITIVE_LENGTH_MEASURE(3.),#171);
#168=PRE_DEFINED_POINT_MARKER_SYMBOL('plus');
#169=PRE_DEFINED_POINT_MARKER_SYMBOL('plus');
#170=PRE_DEFINED_POINT_MARKER_SYMBOL('plus');
#171=COLOUR_RGB('Medium Maroon',0.6,0.4,0.4);
#172=COLOUR_RGB('Silver Gray',0.6,0.6,0.6);
#173=COLOUR_RGB('TLS_NOCUT',0.498023956664378,0.498023956664378,0.498023956664378);
#174=COLOUR_RGB('TLS_CUT',0.8,0.8,0.8);
#175=AXIS2_PLACEMENT_3D('',#241,#197,#198);
#176=AXIS2_PLACEMENT_3D('PCS',#258,#199,#200);
#177=AXIS2_PLACEMENT_3D('MCS',#259,#201,#202);
#178=AXIS2_PLACEMENT_3D('CIP',#260,#203,#204);
#179=AXIS2_PLACEMENT_3D('',#261,#205,#206);
#180=AXIS2_PLACEMENT_3D('',#263,#207,#208);
#181=AXIS2_PLACEMENT_3D('',#265,#209,#210);
#182=AXIS2_PLACEMENT_3D('',#266,#211,#212);
#183=AXIS2_PLACEMENT_3D('',#268,#213,#214);
#184=AXIS2_PLACEMENT_3D('',#269,#215,#216);
#185=AXIS2_PLACEMENT_3D('',#271,#217,#218);
#186=AXIS2_PLACEMENT_3D('',#272,#219,#220);
#187=AXIS2_PLACEMENT_3D('',#273,#221,#222);
#188=AXIS2_PLACEMENT_3D('',#275,#223,#224);
#189=AXIS2_PLACEMENT_3D('',#276,#225,#226);
#190=AXIS2_PLACEMENT_3D('',#278,#227,#228);
#191=AXIS2_PLACEMENT_3D('',#279,#229,#230);
#192=AXIS2_PLACEMENT_3D('',#280,#231,#232);
#193=AXIS2_PLACEMENT_3D('',#282,#233,#234);
#194=AXIS2_PLACEMENT_3D('',#283,#235,#236);
#195=AXIS2_PLACEMENT_3D('',#285,#237,#238);
#196=AXIS2_PLACEMENT_3D('',#286,#239,#240);
#197=DIRECTION('',(0.,0.,1.));
#198=DIRECTION('',(1.,0.,0.));
#199=DIRECTION('',(0.,0.,1.));
#200=DIRECTION('',(1.,0.,0.));
#201=DIRECTION('',(0.,0.,1.));
#202=DIRECTION('',(1.,0.,0.));
#203=DIRECTION('',(0.,0.,1.));
#204=DIRECTION('',(1.,0.,0.));
#205=DIRECTION('',(0.,0.,1.));
#206=DIRECTION('',(1.,0.,0.));
#207=DIRECTION('',(0.,0.,1.));
#208=DIRECTION('',(1.,0.,0.));
#209=DIRECTION('',(0.,0.,1.));
#210=DIRECTION('',(1.,0.,0.));
#211=DIRECTION('',(0.,0.,1.));
#212=DIRECTION('',(1.,0.,0.));
#213=DIRECTION('',(0.,0.,1.));
#214=DIRECTION('',(1.,0.,0.));
#215=DIRECTION('',(0.,0.,-1.));
#216=DIRECTION('',(1.,0.,0.));
#217=DIRECTION('',(0.,0.,1.));
#218=DIRECTION('',(1.,0.,0.));
#219=DIRECTION('',(0.,0.,1.));
#220=DIRECTION('',(1.,0.,0.));
#221=DIRECTION('',(0.,0.,1.));
#222=DIRECTION('',(-1.,0.,0.));
#223=DIRECTION('',(0.,0.,-1.));
#224=DIRECTION('',(-1.,0.,0.));
#225=DIRECTION('',(0.,0.,-1.));
#226=DIRECTION('',(-1.,0.,0.));
#227=DIRECTION('',(0.,0.,1.));
#228=DIRECTION('',(1.,0.,0.));
#229=DIRECTION('',(0.,0.,-1.));
#230=DIRECTION('',(-1.,0.,0.));
#231=DIRECTION('',(0.,0.,1.));
#232=DIRECTION('',(1.,0.,0.));
#233=DIRECTION('',(0.,0.,1.));
#234=DIRECTION('',(1.,0.,0.));
#235=DIRECTION('',(0.,0.,1.));
#236=DIRECTION('',(1.,0.,0.));
#237=DIRECTION('',(0.,6.12323399573676E-17,1.));
#238=DIRECTION('',(0.,1.,0.));
#239=DIRECTION('',(0.,0.,1.));
#240=DIRECTION('',(1.,0.,0.));
#241=CARTESIAN_POINT('',(0.,0.,0.));
#242=CARTESIAN_POINT('',(0.,0.,-36.));
#243=CARTESIAN_POINT('CRP',(-1.5875,0.,-57.15));
#244=CARTESIAN_POINT('CIP_DCSYS',(0.,0.,-57.15));
#245=CARTESIAN_POINT('',(-1.5875,0.,-52.387));
#246=CARTESIAN_POINT('',(-1.05833333333333,0.,-52.387));
#247=CARTESIAN_POINT('',(-0.529166666666667,0.,-52.387));
#248=CARTESIAN_POINT('',(0.,0.,-52.387));
#249=CARTESIAN_POINT('',(0.,0.,-53.9746666666667));
#250=CARTESIAN_POINT('',(0.,0.,-55.5623333333333));
#251=CARTESIAN_POINT('',(3.49942822856356E-15,0.,-57.15));
#252=CARTESIAN_POINT('',(-0.929935969732699,0.,-57.15));
#253=CARTESIAN_POINT('',(-1.58749999999998,0.,-56.4924359697327));
#254=CARTESIAN_POINT('',(-1.5875,0.,-55.5625));
#255=CARTESIAN_POINT('',(-1.58750000000001,0.,-54.504));
#256=CARTESIAN_POINT('',(-1.5875,0.,-53.4455));
#257=CARTESIAN_POINT('',(-1.5875,0.,-52.387));
#258=CARTESIAN_POINT('',(0.,0.,0.));
#259=CARTESIAN_POINT('',(0.,0.,-36.));
#260=CARTESIAN_POINT('',(0.,0.,-57.15));
#261=CARTESIAN_POINT('',(0.,0.,-45.5346789221609));
#262=CARTESIAN_POINT('',(1.74647459621556,0.,-45.5346789221609));
#263=CARTESIAN_POINT('',(0.,0.,-43.0604003429034));
#264=CARTESIAN_POINT('',(3.175,0.,-43.0604003429034));
#265=CARTESIAN_POINT('',(0.,0.,-45.7667297297297));
#266=CARTESIAN_POINT('',(0.,0.,-52.387));
#267=CARTESIAN_POINT('',(1.6125,0.,-52.387));
#268=CARTESIAN_POINT('',(0.,1.5875,-52.387));
#269=CARTESIAN_POINT('',(0.,0.,-46.0346789221609));
#270=CARTESIAN_POINT('',(1.6125,0.,-46.0346789221609));
#271=CARTESIAN_POINT('',(0.,0.,0.));
#272=CARTESIAN_POINT('',(0.,0.,-46.0346789221609));
#273=CARTESIAN_POINT('',(0.,0.,0.));
#274=CARTESIAN_POINT('',(-2.775,0.,0.));
#275=CARTESIAN_POINT('',(0.,3.17500000000001,0.));
#276=CARTESIAN_POINT('',(0.,0.,-0.400000000000001));
#277=CARTESIAN_POINT('',(-3.175,0.,-0.400000000000001));
#278=CARTESIAN_POINT('',(0.,0.,20.9080749503476));
#279=CARTESIAN_POINT('',(0.,0.,0.));
#280=CARTESIAN_POINT('',(0.,0.,-52.387));
#281=CARTESIAN_POINT('',(1.5875,0.,-52.387));
#282=CARTESIAN_POINT('',(0.,0.,-52.387));
#283=CARTESIAN_POINT('',(0.,0.,-55.5625));
#284=CARTESIAN_POINT('',(1.5875,0.,-55.5625));
#285=CARTESIAN_POINT('',(0.,4.27860975452106E-15,-55.5625));
#286=CARTESIAN_POINT('',(0.,0.,0.));
#287=MECHANICAL_DESIGN_GEOMETRIC_PRESENTATION_REPRESENTATION('',(#147,#148,
#149,#150,#151,#152,#153,#154,#155),#288);
#288=(
GEOMETRIC_REPRESENTATION_CONTEXT(3)
GLOBAL_UNCERTAINTY_ASSIGNED_CONTEXT((#289))
GLOBAL_UNIT_ASSIGNED_CONTEXT((#295,#291,#290))
REPRESENTATION_CONTEXT('TOOL','TOP_LEVEL_ASSEMBLY_PART')
);
#289=UNCERTAINTY_MEASURE_WITH_UNIT(LENGTH_MEASURE(2.E-5),#295,
'DISTANCE_ACCURACY_VALUE','Maximum Tolerance applied to model');
#290=(
NAMED_UNIT(*)
SI_UNIT($,.STERADIAN.)
SOLID_ANGLE_UNIT()
);
#291=(
CONVERSION_BASED_UNIT('DEGREE',#293)
NAMED_UNIT(#292)
PLANE_ANGLE_UNIT()
);
#292=DIMENSIONAL_EXPONENTS(0.,0.,0.,0.,0.,0.,0.);
#293=PLANE_ANGLE_MEASURE_WITH_UNIT(PLANE_ANGLE_MEASURE(0.0174532925),#294);
#294=(
NAMED_UNIT(*)
PLANE_ANGLE_UNIT()
SI_UNIT($,.RADIAN.)
);
#295=(
LENGTH_UNIT()
NAMED_UNIT(*)
SI_UNIT(.MILLI.,.METRE.)
);
ENDSEC;
END-ISO-10303-21;
