ISO-10303-21;
HEADER;
/* Generated by software containing ST-Developer
 * from STEP Tools, Inc. (www.steptools.com) 
 */
/* OPTION: using custom schema-name function */

FILE_DESCRIPTION(
/* description */ (''),
/* implementation_level */ '2;1');

FILE_NAME(
/* name */ 'TOOL.STP',
/* time_stamp */ '2024-01-16T05:44:49+01:00',
/* author */ (''),
/* organization */ ('SMS'),
/* preprocessor_version */ 'ST-DEVELOPER v16.7',
/* originating_system */ 'SIEMENS PLM Software NX 12.0',
/* authorisation */ '');

FILE_SCHEMA (('AUTOMOTIVE_DESIGN { 1 0 10303 214 3 1 1 1 }'));
ENDSEC;

DATA;
#10=CONSTRUCTIVE_GEOMETRY_REPRESENTATION_RELATIONSHIP(
'supplemental geometry','',#26,#11);
#11=CONSTRUCTIVE_GEOMETRY_REPRESENTATION('supplemental geometry',(#143,
#144,#145),#228);
#12=GEOMETRICALLY_BOUNDED_WIREFRAME_SHAPE_REPRESENTATION('Tool-None',(#27),
#228);
#13=SHAPE_REPRESENTATION_RELATIONSHIP('None',
'relationship between Tool-None and Tool-None',#26,#15);
#14=SHAPE_REPRESENTATION_RELATIONSHIP('None',
'relationship between Tool-None and Tool-None',#26,#12);
#15=ADVANCED_BREP_SHAPE_REPRESENTATION('Tool-None',(#39,#40),#228);
#16=SHAPE_DEFINITION_REPRESENTATION(#17,#26);
#17=PRODUCT_DEFINITION_SHAPE('','',#18);
#18=PRODUCT_DEFINITION(' ','',#20,#19);
#19=PRODUCT_DEFINITION_CONTEXT('part definition',#25,'design');
#20=PRODUCT_DEFINITION_FORMATION_WITH_SPECIFIED_SOURCE(' ',' ',#22,
 .NOT_KNOWN.);
#21=PRODUCT_RELATED_PRODUCT_CATEGORY('part','',(#22));
#22=PRODUCT('Tool','Tool',' ',(#23));
#23=PRODUCT_CONTEXT(' ',#25,'mechanical');
#24=APPLICATION_PROTOCOL_DEFINITION('international standard',
'automotive_design',2010,#25);
#25=APPLICATION_CONTEXT(
'core data for automotive mechanical design processes');
#26=SHAPE_REPRESENTATION('Tool-None',(#142),#228);
#27=GEOMETRIC_CURVE_SET('None',(#191,#192,#193,#109));
#28=SPHERICAL_SURFACE('',#157,5.);
#29=SURFACE_STYLE_USAGE(.BOTH.,#31);
#30=SURFACE_STYLE_USAGE(.BOTH.,#32);
#31=SURFACE_SIDE_STYLE('',(#33));
#32=SURFACE_SIDE_STYLE('',(#34));
#33=SURFACE_STYLE_FILL_AREA(#35);
#34=SURFACE_STYLE_FILL_AREA(#36);
#35=FILL_AREA_STYLE('',(#37));
#36=FILL_AREA_STYLE('',(#38));
#37=FILL_AREA_STYLE_COLOUR('',#140);
#38=FILL_AREA_STYLE_COLOUR('',#141);
#39=MANIFOLD_SOLID_BREP('NOCUT',#41);
#40=MANIFOLD_SOLID_BREP('CUT',#42);
#41=CLOSED_SHELL('',(#51,#52,#53,#54));
#42=CLOSED_SHELL('',(#55,#56,#57));
#43=CONICAL_SURFACE('',#151,4.4,45.);
#44=PLANE('',#150);
#45=PLANE('',#152);
#46=PLANE('',#154);
#47=FACE_OUTER_BOUND('',#68,.T.);
#48=FACE_OUTER_BOUND('',#71,.T.);
#49=FACE_OUTER_BOUND('',#72,.T.);
#50=FACE_OUTER_BOUND('',#75,.T.);
#51=ADVANCED_FACE('',(#60,#61),#58,.T.);
#52=ADVANCED_FACE('',(#47),#44,.F.);
#53=ADVANCED_FACE('',(#62,#63),#43,.T.);
#54=ADVANCED_FACE('',(#48),#45,.T.);
#55=ADVANCED_FACE('',(#49),#46,.T.);
#56=ADVANCED_FACE('',(#64,#65),#59,.T.);
#57=ADVANCED_FACE('',(#50),#28,.T.);
#58=CYLINDRICAL_SURFACE('',#148,5.);
#59=CYLINDRICAL_SURFACE('',#156,5.);
#60=FACE_BOUND('',#66,.T.);
#61=FACE_BOUND('',#67,.T.);
#62=FACE_BOUND('',#69,.T.);
#63=FACE_BOUND('',#70,.T.);
#64=FACE_BOUND('',#73,.T.);
#65=FACE_BOUND('',#74,.T.);
#66=EDGE_LOOP('',(#76));
#67=EDGE_LOOP('',(#77));
#68=EDGE_LOOP('',(#78));
#69=EDGE_LOOP('',(#79));
#70=EDGE_LOOP('',(#80));
#71=EDGE_LOOP('',(#81));
#72=EDGE_LOOP('',(#82));
#73=EDGE_LOOP('',(#83));
#74=EDGE_LOOP('',(#84));
#75=EDGE_LOOP('',(#85));
#76=ORIENTED_EDGE('',*,*,#91,.T.);
#77=ORIENTED_EDGE('',*,*,#92,.T.);
#78=ORIENTED_EDGE('',*,*,#93,.T.);
#79=ORIENTED_EDGE('',*,*,#91,.F.);
#80=ORIENTED_EDGE('',*,*,#93,.F.);
#81=ORIENTED_EDGE('',*,*,#92,.F.);
#82=ORIENTED_EDGE('',*,*,#94,.F.);
#83=ORIENTED_EDGE('',*,*,#95,.T.);
#84=ORIENTED_EDGE('',*,*,#94,.T.);
#85=ORIENTED_EDGE('',*,*,#95,.F.);
#86=VERTEX_POINT('',#211);
#87=VERTEX_POINT('',#213);
#88=VERTEX_POINT('',#216);
#89=VERTEX_POINT('',#221);
#90=VERTEX_POINT('',#224);
#91=EDGE_CURVE('',#86,#86,#96,.T.);
#92=EDGE_CURVE('',#87,#87,#97,.T.);
#93=EDGE_CURVE('',#88,#88,#98,.T.);
#94=EDGE_CURVE('',#89,#89,#99,.T.);
#95=EDGE_CURVE('',#90,#90,#100,.T.);
#96=CIRCLE('',#146,5.);
#97=CIRCLE('',#147,5.);
#98=CIRCLE('',#149,4.4);
#99=CIRCLE('',#153,5.);
#100=CIRCLE('',#155,5.);
#101=CURVE_STYLE('',#105,POSITIVE_LENGTH_MEASURE(0.18),#112);
#102=CURVE_STYLE('',#106,POSITIVE_LENGTH_MEASURE(0.13),#139);
#103=CURVE_STYLE('',#107,POSITIVE_LENGTH_MEASURE(0.18),#138);
#104=CURVE_STYLE('',#108,POSITIVE_LENGTH_MEASURE(0.18),#138);
#105=DRAUGHTING_PRE_DEFINED_CURVE_FONT('continuous');
#106=DRAUGHTING_PRE_DEFINED_CURVE_FONT('continuous');
#107=DRAUGHTING_PRE_DEFINED_CURVE_FONT('continuous');
#108=DRAUGHTING_PRE_DEFINED_CURVE_FONT('continuous');
#109=TRIMMED_CURVE('CUTTING PART LINE',#110,(PARAMETER_VALUE(0.)),(
PARAMETER_VALUE(1.)),.T.,.PARAMETER.);
#110=(
BOUNDED_CURVE()
B_SPLINE_CURVE(3,(#194,#195,#196,#197,#198,#199,#200,#201,#202,#203,#204,
#205,#206),.UNSPECIFIED.,.T.,.F.)
B_SPLINE_CURVE_WITH_KNOTS((1,3,3,3,3,3,1),(-0.264173002900106,0.,0.207480991297039,
0.603740495651162,0.735826997099894,1.,1.20748099129704),.UNSPECIFIED.)
CURVE()
GEOMETRIC_REPRESENTATION_ITEM()
RATIONAL_B_SPLINE_CURVE((0.585786437626905,0.471404520791032,0.471404520791032,
0.585786437626905,0.585786437626905,0.585786437626905,0.585786437626905,
0.585786437626905,0.585786437626905,0.585786437626905,0.585786437626905,
0.585786437626905,0.585786437626905))
REPRESENTATION_ITEM('CUTTING PART LINE')
);
#111=DRAUGHTING_PRE_DEFINED_COLOUR('white');
#112=DRAUGHTING_PRE_DEFINED_COLOUR('blue');
#113=PRESENTATION_LAYER_ASSIGNMENT('1','Layer 1',(#191,#192,#193,#109,#143,
#144,#145,#39,#40));
#114=STYLED_ITEM('',(#123),#191);
#115=STYLED_ITEM('',(#124),#192);
#116=STYLED_ITEM('',(#125),#193);
#117=STYLED_ITEM('',(#126),#109);
#118=STYLED_ITEM('',(#127),#143);
#119=STYLED_ITEM('',(#128),#144);
#120=STYLED_ITEM('',(#129),#145);
#121=STYLED_ITEM('',(#130),#39);
#122=STYLED_ITEM('',(#131),#40);
#123=PRESENTATION_STYLE_ASSIGNMENT((#132));
#124=PRESENTATION_STYLE_ASSIGNMENT((#133));
#125=PRESENTATION_STYLE_ASSIGNMENT((#134));
#126=PRESENTATION_STYLE_ASSIGNMENT((#101));
#127=PRESENTATION_STYLE_ASSIGNMENT((#102));
#128=PRESENTATION_STYLE_ASSIGNMENT((#103));
#129=PRESENTATION_STYLE_ASSIGNMENT((#104));
#130=PRESENTATION_STYLE_ASSIGNMENT((#29));
#131=PRESENTATION_STYLE_ASSIGNMENT((#30));
#132=POINT_STYLE('',#135,POSITIVE_LENGTH_MEASURE(3.),#138);
#133=POINT_STYLE('',#136,POSITIVE_LENGTH_MEASURE(3.),#111);
#134=POINT_STYLE('',#137,POSITIVE_LENGTH_MEASURE(3.),#138);
#135=PRE_DEFINED_POINT_MARKER_SYMBOL('plus');
#136=PRE_DEFINED_POINT_MARKER_SYMBOL('plus');
#137=PRE_DEFINED_POINT_MARKER_SYMBOL('plus');
#138=COLOUR_RGB('Medium Maroon',0.6,0.4,0.4);
#139=COLOUR_RGB('Silver Gray',0.6,0.6,0.6);
#140=COLOUR_RGB('TLS_NOCUT',0.498023956664378,0.498023956664378,0.498023956664378);
#141=COLOUR_RGB('TLS_CUT',0.8,0.8,0.8);
#142=AXIS2_PLACEMENT_3D('',#190,#158,#159);
#143=AXIS2_PLACEMENT_3D('PCS',#207,#160,#161);
#144=AXIS2_PLACEMENT_3D('MCS',#208,#162,#163);
#145=AXIS2_PLACEMENT_3D('CIP',#209,#164,#165);
#146=AXIS2_PLACEMENT_3D('',#210,#166,#167);
#147=AXIS2_PLACEMENT_3D('',#212,#168,#169);
#148=AXIS2_PLACEMENT_3D('',#214,#170,#171);
#149=AXIS2_PLACEMENT_3D('',#215,#172,#173);
#150=AXIS2_PLACEMENT_3D('',#217,#174,#175);
#151=AXIS2_PLACEMENT_3D('',#218,#176,#177);
#152=AXIS2_PLACEMENT_3D('',#219,#178,#179);
#153=AXIS2_PLACEMENT_3D('',#220,#180,#181);
#154=AXIS2_PLACEMENT_3D('',#222,#182,#183);
#155=AXIS2_PLACEMENT_3D('',#223,#184,#185);
#156=AXIS2_PLACEMENT_3D('',#225,#186,#187);
#157=AXIS2_PLACEMENT_3D('',#226,#188,#189);
#158=DIRECTION('',(0.,0.,1.));
#159=DIRECTION('',(1.,0.,0.));
#160=DIRECTION('',(0.,0.,1.));
#161=DIRECTION('',(1.,0.,0.));
#162=DIRECTION('',(0.,0.,1.));
#163=DIRECTION('',(1.,0.,0.));
#164=DIRECTION('',(0.,0.,1.));
#165=DIRECTION('',(1.,0.,0.));
#166=DIRECTION('',(0.,0.,-1.));
#167=DIRECTION('',(-1.,0.,0.));
#168=DIRECTION('',(0.,0.,1.));
#169=DIRECTION('',(-1.,0.,0.));
#170=DIRECTION('',(0.,0.,1.));
#171=DIRECTION('',(1.,0.,0.));
#172=DIRECTION('',(0.,0.,1.));
#173=DIRECTION('',(-1.,0.,0.));
#174=DIRECTION('',(0.,0.,-1.));
#175=DIRECTION('',(-1.,0.,0.));
#176=DIRECTION('',(0.,0.,-1.));
#177=DIRECTION('',(-1.,0.,0.));
#178=DIRECTION('',(0.,0.,-1.));
#179=DIRECTION('',(-1.,0.,0.));
#180=DIRECTION('',(0.,0.,-1.));
#181=DIRECTION('',(1.,0.,0.));
#182=DIRECTION('',(0.,0.,1.));
#183=DIRECTION('',(1.,0.,0.));
#184=DIRECTION('',(0.,0.,1.));
#185=DIRECTION('',(1.,0.,0.));
#186=DIRECTION('',(0.,0.,1.));
#187=DIRECTION('',(1.,0.,0.));
#188=DIRECTION('',(0.,6.12323399573677E-17,1.));
#189=DIRECTION('',(0.,1.,0.));
#190=CARTESIAN_POINT('',(0.,0.,0.));
#191=CARTESIAN_POINT('',(0.,0.,-40.));
#192=CARTESIAN_POINT('CRP',(-5.,0.,-100.));
#193=CARTESIAN_POINT('CIP_DCSYS',(0.,0.,-100.));
#194=CARTESIAN_POINT('',(-4.99999999999999,0.,-95.));
#195=CARTESIAN_POINT('',(-4.99999999999999,0.,-97.9289321881345));
#196=CARTESIAN_POINT('',(-2.92893218813451,0.,-100.));
#197=CARTESIAN_POINT('',(5.51091059616308E-15,0.,-100.));
#198=CARTESIAN_POINT('',(0.,0.,-95.));
#199=CARTESIAN_POINT('',(0.,0.,-90.));
#200=CARTESIAN_POINT('',(0.,0.,-85.));
#201=CARTESIAN_POINT('',(-1.66666666666667,0.,-85.));
#202=CARTESIAN_POINT('',(-3.33333333333333,0.,-85.));
#203=CARTESIAN_POINT('',(-5.,0.,-85.));
#204=CARTESIAN_POINT('',(-5.,0.,-88.3333333333333));
#205=CARTESIAN_POINT('',(-5.,0.,-91.6666666666667));
#206=CARTESIAN_POINT('',(-5.,0.,-95.));
#207=CARTESIAN_POINT('',(0.,0.,0.));
#208=CARTESIAN_POINT('',(0.,0.,-40.));
#209=CARTESIAN_POINT('',(0.,0.,-100.));
#210=CARTESIAN_POINT('',(0.,0.,-0.6));
#211=CARTESIAN_POINT('',(-5.,0.,-0.6));
#212=CARTESIAN_POINT('',(0.,0.,-85.));
#213=CARTESIAN_POINT('',(-5.,0.,-85.));
#214=CARTESIAN_POINT('',(0.,0.,0.));
#215=CARTESIAN_POINT('',(0.,0.,0.));
#216=CARTESIAN_POINT('',(-4.4,0.,0.));
#217=CARTESIAN_POINT('',(0.,5.,0.));
#218=CARTESIAN_POINT('',(0.,0.,0.));
#219=CARTESIAN_POINT('',(0.,0.,-85.));
#220=CARTESIAN_POINT('',(0.,0.,-85.));
#221=CARTESIAN_POINT('',(5.,0.,-85.));
#222=CARTESIAN_POINT('',(0.,0.,-85.));
#223=CARTESIAN_POINT('',(0.,0.,-95.));
#224=CARTESIAN_POINT('',(5.,0.,-95.));
#225=CARTESIAN_POINT('',(0.,0.,0.));
#226=CARTESIAN_POINT('',(0.,-5.51091059616308E-16,-95.));
#227=MECHANICAL_DESIGN_GEOMETRIC_PRESENTATION_REPRESENTATION('',(#114,#115,
#116,#117,#118,#119,#120,#121,#122),#228);
#228=(
GEOMETRIC_REPRESENTATION_CONTEXT(3)
GLOBAL_UNCERTAINTY_ASSIGNED_CONTEXT((#229))
GLOBAL_UNIT_ASSIGNED_CONTEXT((#235,#231,#230))
REPRESENTATION_CONTEXT('TOOL','TOP_LEVEL_ASSEMBLY_PART')
);
#229=UNCERTAINTY_MEASURE_WITH_UNIT(LENGTH_MEASURE(2.E-5),#235,
'DISTANCE_ACCURACY_VALUE','Maximum Tolerance applied to model');
#230=(
NAMED_UNIT(*)
SI_UNIT($,.STERADIAN.)
SOLID_ANGLE_UNIT()
);
#231=(
CONVERSION_BASED_UNIT('DEGREE',#233)
NAMED_UNIT(#232)
PLANE_ANGLE_UNIT()
);
#232=DIMENSIONAL_EXPONENTS(0.,0.,0.,0.,0.,0.,0.);
#233=PLANE_ANGLE_MEASURE_WITH_UNIT(PLANE_ANGLE_MEASURE(0.0174532925),#234);
#234=(
NAMED_UNIT(*)
PLANE_ANGLE_UNIT()
SI_UNIT($,.RADIAN.)
);
#235=(
LENGTH_UNIT()
NAMED_UNIT(*)
SI_UNIT(.MILLI.,.METRE.)
);
ENDSEC;
END-ISO-10303-21;
