ISO-10303-21;
HEADER;
/* Generated by software containing ST-Developer
 * from STEP Tools, Inc. (www.steptools.com) 
 */
/* OPTION: using custom schema-name function */

FILE_DESCRIPTION(
/* description */ (''),
/* implementation_level */ '2;1');

FILE_NAME(
/* name */ '1704283448964.stp',
/* time_stamp */ '2024-01-03T17:34:20+05:00',
/* author */ (''),
/* organization */ ('SMS'),
/* preprocessor_version */ 'ST-DEVELOPER v16.7',
/* originating_system */ 'SIEMENS PLM Software NX 12.0',
/* authorisation */ '');

FILE_SCHEMA (('AUTOMOTIVE_DESIGN { 1 0 10303 214 3 1 1 1 }'));
ENDSEC;

DATA;
#10=CONSTRUCTIVE_GEOMETRY_REPRESENTATION_RELATIONSHIP(
'supplemental geometry','',#26,#11);
#11=CONSTRUCTIVE_GEOMETRY_REPRESENTATION('supplemental geometry',(#296,
#297,#298),#504);
#12=GEOMETRICALLY_BOUNDED_WIREFRAME_SHAPE_REPRESENTATION(
'205082398mod000_00-None',(#27),#504);
#13=SHAPE_REPRESENTATION_RELATIONSHIP('None',
'relationship between 205082398mod000_00-None and 205082398mod000_00-N
one',#26,#15);
#14=SHAPE_REPRESENTATION_RELATIONSHIP('None',
'relationship between 205082398mod000_00-None and 205082398mod000_00-N
one',#26,#12);
#15=ADVANCED_BREP_SHAPE_REPRESENTATION('205082398mod000_00-None',(#33),
#504);
#16=SHAPE_DEFINITION_REPRESENTATION(#17,#26);
#17=PRODUCT_DEFINITION_SHAPE('','',#18);
#18=PRODUCT_DEFINITION(' ','',#20,#19);
#19=PRODUCT_DEFINITION_CONTEXT('part definition',#25,'design');
#20=PRODUCT_DEFINITION_FORMATION_WITH_SPECIFIED_SOURCE(' ',' ',#22,
 .NOT_KNOWN.);
#21=PRODUCT_RELATED_PRODUCT_CATEGORY('part','',(#22));
#22=PRODUCT('205082398mod000_00','205082398mod000_00',' ',(#23));
#23=PRODUCT_CONTEXT(' ',#25,'mechanical');
#24=APPLICATION_PROTOCOL_DEFINITION('international standard',
'automotive_design',2010,#25);
#25=APPLICATION_CONTEXT(
'core data for automotive mechanical design processes');
#26=SHAPE_REPRESENTATION('205082398mod000_00-None',(#295),#504);
#27=GEOMETRIC_CURVE_SET('None',(#434,#435,#436));
#28=SURFACE_STYLE_USAGE(.BOTH.,#29);
#29=SURFACE_SIDE_STYLE('',(#30));
#30=SURFACE_STYLE_FILL_AREA(#31);
#31=FILL_AREA_STYLE('',(#32));
#32=FILL_AREA_STYLE_COLOUR('',#294);
#33=MANIFOLD_SOLID_BREP('NOCUT',#34);
#34=CLOSED_SHELL('',(#50,#51,#52,#53,#54,#55,#56,#57,#58,#59,#60,#61,#62,
#63,#64,#65,#66,#67,#68,#69,#70));
#35=PLANE('',#313);
#36=PLANE('',#319);
#37=PLANE('',#338);
#38=TOROIDAL_SURFACE('',#310,13.7343145750508,0.4);
#39=TOROIDAL_SURFACE('',#317,12.75,0.4);
#40=TOROIDAL_SURFACE('',#333,11.6762395692966,0.4);
#41=TOROIDAL_SURFACE('',#334,14.6,0.4);
#42=TOROIDAL_SURFACE('',#335,14.6,0.4);
#43=TOROIDAL_SURFACE('',#336,13.8343145750508,0.4);
#44=TOROIDAL_SURFACE('',#340,8.4375,0.5);
#45=CYLINDRICAL_SURFACE('',#307,7.9375);
#46=CYLINDRICAL_SURFACE('',#315,12.35);
#47=CYLINDRICAL_SURFACE('',#322,15.);
#48=CYLINDRICAL_SURFACE('',#326,10.25);
#49=CYLINDRICAL_SURFACE('',#339,12.5);
#50=ADVANCED_FACE('',(#77,#78),#71,.T.);
#51=ADVANCED_FACE('',(#79,#80),#72,.T.);
#52=ADVANCED_FACE('',(#81,#82),#45,.F.);
#53=ADVANCED_FACE('',(#83,#84),#38,.T.);
#54=ADVANCED_FACE('',(#85,#86),#35,.T.);
#55=ADVANCED_FACE('',(#87,#88),#46,.T.);
#56=ADVANCED_FACE('',(#89,#90),#39,.F.);
#57=ADVANCED_FACE('',(#91,#92),#36,.T.);
#58=ADVANCED_FACE('',(#93,#94),#47,.T.);
#59=ADVANCED_FACE('',(#95,#96),#73,.F.);
#60=ADVANCED_FACE('',(#97,#98),#48,.F.);
#61=ADVANCED_FACE('',(#99,#100),#74,.F.);
#62=ADVANCED_FACE('',(#101,#102),#75,.T.);
#63=ADVANCED_FACE('',(#103,#104),#76,.T.);
#64=ADVANCED_FACE('',(#105,#106),#40,.T.);
#65=ADVANCED_FACE('',(#107,#108),#41,.T.);
#66=ADVANCED_FACE('',(#109,#110),#42,.T.);
#67=ADVANCED_FACE('',(#111,#112),#43,.T.);
#68=ADVANCED_FACE('',(#113,#114),#37,.T.);
#69=ADVANCED_FACE('',(#115,#116),#49,.T.);
#70=ADVANCED_FACE('',(#117,#118),#44,.T.);
#71=CONICAL_SURFACE('',#301,12.6,14.9999999999999);
#72=CONICAL_SURFACE('',#304,11.9071796769724,30.);
#73=CONICAL_SURFACE('',#324,10.25,45.);
#74=CONICAL_SURFACE('',#327,10.5386751345948,30.);
#75=CONICAL_SURFACE('',#329,15.,45.);
#76=CONICAL_SURFACE('',#332,14.,45.);
#77=FACE_BOUND('',#119,.T.);
#78=FACE_BOUND('',#120,.T.);
#79=FACE_BOUND('',#121,.T.);
#80=FACE_BOUND('',#122,.T.);
#81=FACE_BOUND('',#123,.T.);
#82=FACE_BOUND('',#124,.T.);
#83=FACE_BOUND('',#125,.T.);
#84=FACE_BOUND('',#126,.T.);
#85=FACE_BOUND('',#127,.T.);
#86=FACE_BOUND('',#128,.T.);
#87=FACE_BOUND('',#129,.T.);
#88=FACE_BOUND('',#130,.T.);
#89=FACE_BOUND('',#131,.T.);
#90=FACE_BOUND('',#132,.T.);
#91=FACE_BOUND('',#133,.T.);
#92=FACE_BOUND('',#134,.T.);
#93=FACE_BOUND('',#135,.T.);
#94=FACE_BOUND('',#136,.T.);
#95=FACE_BOUND('',#137,.T.);
#96=FACE_BOUND('',#138,.T.);
#97=FACE_BOUND('',#139,.T.);
#98=FACE_BOUND('',#140,.T.);
#99=FACE_BOUND('',#141,.T.);
#100=FACE_BOUND('',#142,.T.);
#101=FACE_BOUND('',#143,.T.);
#102=FACE_BOUND('',#144,.T.);
#103=FACE_BOUND('',#145,.T.);
#104=FACE_BOUND('',#146,.T.);
#105=FACE_BOUND('',#147,.T.);
#106=FACE_BOUND('',#148,.T.);
#107=FACE_BOUND('',#149,.T.);
#108=FACE_BOUND('',#150,.T.);
#109=FACE_BOUND('',#151,.T.);
#110=FACE_BOUND('',#152,.T.);
#111=FACE_BOUND('',#153,.T.);
#112=FACE_BOUND('',#154,.T.);
#113=FACE_BOUND('',#155,.T.);
#114=FACE_BOUND('',#156,.T.);
#115=FACE_BOUND('',#157,.T.);
#116=FACE_BOUND('',#158,.T.);
#117=FACE_BOUND('',#159,.T.);
#118=FACE_BOUND('',#160,.T.);
#119=EDGE_LOOP('',(#161));
#120=EDGE_LOOP('',(#162));
#121=EDGE_LOOP('',(#163));
#122=EDGE_LOOP('',(#164));
#123=EDGE_LOOP('',(#165));
#124=EDGE_LOOP('',(#166));
#125=EDGE_LOOP('',(#167));
#126=EDGE_LOOP('',(#168));
#127=EDGE_LOOP('',(#169));
#128=EDGE_LOOP('',(#170));
#129=EDGE_LOOP('',(#171));
#130=EDGE_LOOP('',(#172));
#131=EDGE_LOOP('',(#173));
#132=EDGE_LOOP('',(#174));
#133=EDGE_LOOP('',(#175));
#134=EDGE_LOOP('',(#176));
#135=EDGE_LOOP('',(#177));
#136=EDGE_LOOP('',(#178));
#137=EDGE_LOOP('',(#179));
#138=EDGE_LOOP('',(#180));
#139=EDGE_LOOP('',(#181));
#140=EDGE_LOOP('',(#182));
#141=EDGE_LOOP('',(#183));
#142=EDGE_LOOP('',(#184));
#143=EDGE_LOOP('',(#185));
#144=EDGE_LOOP('',(#186));
#145=EDGE_LOOP('',(#187));
#146=EDGE_LOOP('',(#188));
#147=EDGE_LOOP('',(#189));
#148=EDGE_LOOP('',(#190));
#149=EDGE_LOOP('',(#191));
#150=EDGE_LOOP('',(#192));
#151=EDGE_LOOP('',(#193));
#152=EDGE_LOOP('',(#194));
#153=EDGE_LOOP('',(#195));
#154=EDGE_LOOP('',(#196));
#155=EDGE_LOOP('',(#197));
#156=EDGE_LOOP('',(#198));
#157=EDGE_LOOP('',(#199));
#158=EDGE_LOOP('',(#200));
#159=EDGE_LOOP('',(#201));
#160=EDGE_LOOP('',(#202));
#161=ORIENTED_EDGE('',*,*,#224,.T.);
#162=ORIENTED_EDGE('',*,*,#225,.T.);
#163=ORIENTED_EDGE('',*,*,#226,.T.);
#164=ORIENTED_EDGE('',*,*,#227,.T.);
#165=ORIENTED_EDGE('',*,*,#228,.T.);
#166=ORIENTED_EDGE('',*,*,#229,.T.);
#167=ORIENTED_EDGE('',*,*,#230,.F.);
#168=ORIENTED_EDGE('',*,*,#231,.T.);
#169=ORIENTED_EDGE('',*,*,#232,.T.);
#170=ORIENTED_EDGE('',*,*,#233,.T.);
#171=ORIENTED_EDGE('',*,*,#234,.T.);
#172=ORIENTED_EDGE('',*,*,#224,.F.);
#173=ORIENTED_EDGE('',*,*,#235,.T.);
#174=ORIENTED_EDGE('',*,*,#234,.F.);
#175=ORIENTED_EDGE('',*,*,#236,.T.);
#176=ORIENTED_EDGE('',*,*,#235,.F.);
#177=ORIENTED_EDGE('',*,*,#237,.T.);
#178=ORIENTED_EDGE('',*,*,#238,.T.);
#179=ORIENTED_EDGE('',*,*,#239,.F.);
#180=ORIENTED_EDGE('',*,*,#229,.F.);
#181=ORIENTED_EDGE('',*,*,#240,.T.);
#182=ORIENTED_EDGE('',*,*,#239,.T.);
#183=ORIENTED_EDGE('',*,*,#240,.F.);
#184=ORIENTED_EDGE('',*,*,#233,.F.);
#185=ORIENTED_EDGE('',*,*,#241,.T.);
#186=ORIENTED_EDGE('',*,*,#230,.T.);
#187=ORIENTED_EDGE('',*,*,#242,.T.);
#188=ORIENTED_EDGE('',*,*,#243,.T.);
#189=ORIENTED_EDGE('',*,*,#226,.F.);
#190=ORIENTED_EDGE('',*,*,#232,.F.);
#191=ORIENTED_EDGE('',*,*,#241,.F.);
#192=ORIENTED_EDGE('',*,*,#238,.F.);
#193=ORIENTED_EDGE('',*,*,#243,.F.);
#194=ORIENTED_EDGE('',*,*,#237,.F.);
#195=ORIENTED_EDGE('',*,*,#242,.F.);
#196=ORIENTED_EDGE('',*,*,#236,.F.);
#197=ORIENTED_EDGE('',*,*,#244,.T.);
#198=ORIENTED_EDGE('',*,*,#231,.F.);
#199=ORIENTED_EDGE('',*,*,#225,.F.);
#200=ORIENTED_EDGE('',*,*,#227,.F.);
#201=ORIENTED_EDGE('',*,*,#228,.F.);
#202=ORIENTED_EDGE('',*,*,#244,.F.);
#203=VERTEX_POINT('',#441);
#204=VERTEX_POINT('',#443);
#205=VERTEX_POINT('',#446);
#206=VERTEX_POINT('',#448);
#207=VERTEX_POINT('',#451);
#208=VERTEX_POINT('',#453);
#209=VERTEX_POINT('',#456);
#210=VERTEX_POINT('',#458);
#211=VERTEX_POINT('',#461);
#212=VERTEX_POINT('',#463);
#213=VERTEX_POINT('',#466);
#214=VERTEX_POINT('',#469);
#215=VERTEX_POINT('',#472);
#216=VERTEX_POINT('',#475);
#217=VERTEX_POINT('',#477);
#218=VERTEX_POINT('',#480);
#219=VERTEX_POINT('',#483);
#220=VERTEX_POINT('',#487);
#221=VERTEX_POINT('',#490);
#222=VERTEX_POINT('',#492);
#223=VERTEX_POINT('',#499);
#224=EDGE_CURVE('',#203,#203,#245,.T.);
#225=EDGE_CURVE('',#204,#204,#246,.T.);
#226=EDGE_CURVE('',#205,#205,#247,.T.);
#227=EDGE_CURVE('',#206,#206,#248,.T.);
#228=EDGE_CURVE('',#207,#207,#249,.T.);
#229=EDGE_CURVE('',#208,#208,#250,.T.);
#230=EDGE_CURVE('',#209,#209,#251,.T.);
#231=EDGE_CURVE('',#210,#210,#252,.T.);
#232=EDGE_CURVE('',#211,#211,#253,.T.);
#233=EDGE_CURVE('',#212,#212,#254,.T.);
#234=EDGE_CURVE('',#213,#213,#255,.T.);
#235=EDGE_CURVE('',#214,#214,#256,.T.);
#236=EDGE_CURVE('',#215,#215,#257,.T.);
#237=EDGE_CURVE('',#216,#216,#258,.T.);
#238=EDGE_CURVE('',#217,#217,#259,.T.);
#239=EDGE_CURVE('',#218,#218,#260,.T.);
#240=EDGE_CURVE('',#219,#219,#261,.T.);
#241=EDGE_CURVE('',#220,#220,#262,.T.);
#242=EDGE_CURVE('',#221,#221,#263,.T.);
#243=EDGE_CURVE('',#222,#222,#264,.T.);
#244=EDGE_CURVE('',#223,#223,#265,.T.);
#245=CIRCLE('',#299,12.35);
#246=CIRCLE('',#300,12.5);
#247=CIRCLE('',#302,12.0226497308104);
#248=CIRCLE('',#303,12.5);
#249=CIRCLE('',#305,7.9375);
#250=CIRCLE('',#306,7.9375);
#251=CIRCLE('',#308,14.0171572875254);
#252=CIRCLE('',#309,13.9988897061572);
#253=CIRCLE('',#311,11.6762395692966);
#254=CIRCLE('',#312,10.5386751345948);
#255=CIRCLE('',#314,12.35);
#256=CIRCLE('',#316,12.75);
#257=CIRCLE('',#318,13.8343145750508);
#258=CIRCLE('',#320,15.);
#259=CIRCLE('',#321,15.);
#260=CIRCLE('',#323,10.25);
#261=CIRCLE('',#325,10.25);
#262=CIRCLE('',#328,14.8828427124746);
#263=CIRCLE('',#330,14.1171572875254);
#264=CIRCLE('',#331,14.8828427124746);
#265=CIRCLE('',#337,8.4375);
#266=CURVE_STYLE('',#269,POSITIVE_LENGTH_MEASURE(0.18),#293);
#267=CURVE_STYLE('',#270,POSITIVE_LENGTH_MEASURE(0.18),#293);
#268=CURVE_STYLE('',#271,POSITIVE_LENGTH_MEASURE(0.18),#293);
#269=DRAUGHTING_PRE_DEFINED_CURVE_FONT('continuous');
#270=DRAUGHTING_PRE_DEFINED_CURVE_FONT('continuous');
#271=DRAUGHTING_PRE_DEFINED_CURVE_FONT('continuous');
#272=PRESENTATION_LAYER_ASSIGNMENT('1','Layer 1',(#434,#435,#436,#296,#297,
#298,#33));
#273=STYLED_ITEM('',(#280),#434);
#274=STYLED_ITEM('',(#281),#435);
#275=STYLED_ITEM('',(#282),#436);
#276=STYLED_ITEM('',(#283),#296);
#277=STYLED_ITEM('',(#284),#297);
#278=STYLED_ITEM('',(#285),#298);
#279=STYLED_ITEM('',(#286),#33);
#280=PRESENTATION_STYLE_ASSIGNMENT((#287));
#281=PRESENTATION_STYLE_ASSIGNMENT((#288));
#282=PRESENTATION_STYLE_ASSIGNMENT((#289));
#283=PRESENTATION_STYLE_ASSIGNMENT((#266));
#284=PRESENTATION_STYLE_ASSIGNMENT((#267));
#285=PRESENTATION_STYLE_ASSIGNMENT((#268));
#286=PRESENTATION_STYLE_ASSIGNMENT((#28));
#287=POINT_STYLE('',#290,POSITIVE_LENGTH_MEASURE(3.),#293);
#288=POINT_STYLE('',#291,POSITIVE_LENGTH_MEASURE(3.),#293);
#289=POINT_STYLE('',#292,POSITIVE_LENGTH_MEASURE(3.),#293);
#290=PRE_DEFINED_POINT_MARKER_SYMBOL('plus');
#291=PRE_DEFINED_POINT_MARKER_SYMBOL('plus');
#292=PRE_DEFINED_POINT_MARKER_SYMBOL('plus');
#293=COLOUR_RGB('Medium Maroon',0.6,0.4,0.4);
#294=COLOUR_RGB('Medium Gray',0.501960784313725,0.501960784313725,0.501960784313725);
#295=AXIS2_PLACEMENT_3D('',#433,#341,#342);
#296=AXIS2_PLACEMENT_3D('PCS',#437,#343,#344);
#297=AXIS2_PLACEMENT_3D('MCS',#438,#345,#346);
#298=AXIS2_PLACEMENT_3D('CSW',#439,#347,#348);
#299=AXIS2_PLACEMENT_3D('',#440,#349,#350);
#300=AXIS2_PLACEMENT_3D('',#442,#351,#352);
#301=AXIS2_PLACEMENT_3D('',#444,#353,#354);
#302=AXIS2_PLACEMENT_3D('',#445,#355,#356);
#303=AXIS2_PLACEMENT_3D('',#447,#357,#358);
#304=AXIS2_PLACEMENT_3D('',#449,#359,#360);
#305=AXIS2_PLACEMENT_3D('',#450,#361,#362);
#306=AXIS2_PLACEMENT_3D('',#452,#363,#364);
#307=AXIS2_PLACEMENT_3D('',#454,#365,#366);
#308=AXIS2_PLACEMENT_3D('',#455,#367,#368);
#309=AXIS2_PLACEMENT_3D('',#457,#369,#370);
#310=AXIS2_PLACEMENT_3D('',#459,#371,#372);
#311=AXIS2_PLACEMENT_3D('',#460,#373,#374);
#312=AXIS2_PLACEMENT_3D('',#462,#375,#376);
#313=AXIS2_PLACEMENT_3D('',#464,#377,#378);
#314=AXIS2_PLACEMENT_3D('',#465,#379,#380);
#315=AXIS2_PLACEMENT_3D('',#467,#381,#382);
#316=AXIS2_PLACEMENT_3D('',#468,#383,#384);
#317=AXIS2_PLACEMENT_3D('',#470,#385,#386);
#318=AXIS2_PLACEMENT_3D('',#471,#387,#388);
#319=AXIS2_PLACEMENT_3D('',#473,#389,#390);
#320=AXIS2_PLACEMENT_3D('',#474,#391,#392);
#321=AXIS2_PLACEMENT_3D('',#476,#393,#394);
#322=AXIS2_PLACEMENT_3D('',#478,#395,#396);
#323=AXIS2_PLACEMENT_3D('',#479,#397,#398);
#324=AXIS2_PLACEMENT_3D('',#481,#399,#400);
#325=AXIS2_PLACEMENT_3D('',#482,#401,#402);
#326=AXIS2_PLACEMENT_3D('',#484,#403,#404);
#327=AXIS2_PLACEMENT_3D('',#485,#405,#406);
#328=AXIS2_PLACEMENT_3D('',#486,#407,#408);
#329=AXIS2_PLACEMENT_3D('',#488,#409,#410);
#330=AXIS2_PLACEMENT_3D('',#489,#411,#412);
#331=AXIS2_PLACEMENT_3D('',#491,#413,#414);
#332=AXIS2_PLACEMENT_3D('',#493,#415,#416);
#333=AXIS2_PLACEMENT_3D('',#494,#417,#418);
#334=AXIS2_PLACEMENT_3D('',#495,#419,#420);
#335=AXIS2_PLACEMENT_3D('',#496,#421,#422);
#336=AXIS2_PLACEMENT_3D('',#497,#423,#424);
#337=AXIS2_PLACEMENT_3D('',#498,#425,#426);
#338=AXIS2_PLACEMENT_3D('',#500,#427,#428);
#339=AXIS2_PLACEMENT_3D('',#501,#429,#430);
#340=AXIS2_PLACEMENT_3D('',#502,#431,#432);
#341=DIRECTION('',(0.,0.,1.));
#342=DIRECTION('',(1.,0.,0.));
#343=DIRECTION('',(0.,0.,1.));
#344=DIRECTION('',(1.,0.,0.));
#345=DIRECTION('',(0.,0.,1.));
#346=DIRECTION('',(1.,0.,0.));
#347=DIRECTION('',(0.,0.,1.));
#348=DIRECTION('',(1.,0.,0.));
#349=DIRECTION('',(0.,0.,1.));
#350=DIRECTION('',(1.,0.,0.));
#351=DIRECTION('',(0.,0.,-1.));
#352=DIRECTION('',(1.,0.,0.));
#353=DIRECTION('',(0.,0.,1.));
#354=DIRECTION('',(-1.,0.,-1.90136875547711E-16));
#355=DIRECTION('',(0.,0.,-1.));
#356=DIRECTION('',(1.,0.,0.));
#357=DIRECTION('',(0.,0.,1.));
#358=DIRECTION('',(-1.,0.,0.));
#359=DIRECTION('',(0.,0.,-1.));
#360=DIRECTION('',(1.,0.,8.24296025799529E-17));
#361=DIRECTION('',(0.,0.,-1.));
#362=DIRECTION('',(-1.,0.,0.));
#363=DIRECTION('',(0.,0.,1.));
#364=DIRECTION('',(1.,0.,0.));
#365=DIRECTION('',(0.,0.,1.));
#366=DIRECTION('',(1.,0.,0.));
#367=DIRECTION('',(0.,0.,1.));
#368=DIRECTION('',(-1.,0.,0.));
#369=DIRECTION('',(0.,0.,1.));
#370=DIRECTION('',(-1.,0.,0.));
#371=DIRECTION('',(0.,0.,-1.));
#372=DIRECTION('',(1.,0.,0.));
#373=DIRECTION('',(0.,0.,1.));
#374=DIRECTION('',(1.,0.,0.));
#375=DIRECTION('',(0.,0.,-1.));
#376=DIRECTION('',(1.,0.,0.));
#377=DIRECTION('',(0.,0.,1.));
#378=DIRECTION('',(-1.,0.,0.));
#379=DIRECTION('',(0.,0.,1.));
#380=DIRECTION('',(1.,0.,0.));
#381=DIRECTION('',(0.,0.,1.));
#382=DIRECTION('',(-1.,0.,0.));
#383=DIRECTION('',(0.,0.,1.));
#384=DIRECTION('',(1.,0.,0.));
#385=DIRECTION('',(0.,0.,1.));
#386=DIRECTION('',(-1.,0.,0.));
#387=DIRECTION('',(0.,0.,1.));
#388=DIRECTION('',(1.,0.,0.));
#389=DIRECTION('',(0.,0.,1.));
#390=DIRECTION('',(-1.,0.,0.));
#391=DIRECTION('',(0.,0.,-1.));
#392=DIRECTION('',(1.,0.,0.));
#393=DIRECTION('',(0.,0.,1.));
#394=DIRECTION('',(-1.,0.,0.));
#395=DIRECTION('',(0.,0.,1.));
#396=DIRECTION('',(-1.,0.,0.));
#397=DIRECTION('',(0.,0.,-1.));
#398=DIRECTION('',(-1.,0.,0.));
#399=DIRECTION('',(0.,0.,1.));
#400=DIRECTION('',(1.,0.,4.12109511739108E-17));
#401=DIRECTION('',(0.,0.,1.));
#402=DIRECTION('',(1.,0.,0.));
#403=DIRECTION('',(0.,0.,-1.));
#404=DIRECTION('',(-1.,0.,0.));
#405=DIRECTION('',(0.,0.,1.));
#406=DIRECTION('',(-1.,0.,8.26214845444739E-17));
#407=DIRECTION('',(0.,0.,-1.));
#408=DIRECTION('',(-1.,0.,0.));
#409=DIRECTION('',(0.,0.,1.));
#410=DIRECTION('',(-1.,0.,-2.56363075267509E-18));
#411=DIRECTION('',(0.,0.,-1.));
#412=DIRECTION('',(1.,0.,0.));
#413=DIRECTION('',(0.,0.,1.));
#414=DIRECTION('',(1.,0.,0.));
#415=DIRECTION('',(0.,0.,-1.));
#416=DIRECTION('',(1.,0.,0.));
#417=DIRECTION('',(0.,0.,1.));
#418=DIRECTION('',(-1.,0.,0.));
#419=DIRECTION('',(0.,0.,-1.));
#420=DIRECTION('',(1.,0.,0.));
#421=DIRECTION('',(0.,0.,1.));
#422=DIRECTION('',(-1.,0.,0.));
#423=DIRECTION('',(0.,0.,1.));
#424=DIRECTION('',(-1.,0.,0.));
#425=DIRECTION('',(0.,0.,1.));
#426=DIRECTION('',(-1.,0.,0.));
#427=DIRECTION('',(0.,0.,-1.));
#428=DIRECTION('',(1.,0.,0.));
#429=DIRECTION('',(0.,0.,1.));
#430=DIRECTION('',(-1.,0.,0.));
#431=DIRECTION('',(0.,0.,-1.));
#432=DIRECTION('',(1.,0.,0.));
#433=CARTESIAN_POINT('',(0.,0.,0.));
#434=CARTESIAN_POINT('',(0.,0.,0.));
#435=CARTESIAN_POINT('',(0.,0.,0.));
#436=CARTESIAN_POINT('',(0.,0.,-4.));
#437=CARTESIAN_POINT('',(0.,0.,0.));
#438=CARTESIAN_POINT('',(0.,0.,0.));
#439=CARTESIAN_POINT('',(0.,0.,-4.));
#440=CARTESIAN_POINT('',(0.,0.,1.56698729810778));
#441=CARTESIAN_POINT('',(12.35,0.,1.56698729810778));
#442=CARTESIAN_POINT('',(0.,0.,2.12679491924311));
#443=CARTESIAN_POINT('',(12.5,0.,2.12679491924311));
#444=CARTESIAN_POINT('',(0.,0.,2.5));
#445=CARTESIAN_POINT('',(0.,0.,55.8));
#446=CARTESIAN_POINT('',(12.0226497308104,0.,55.8));
#447=CARTESIAN_POINT('',(0.,0.,54.9732050807569));
#448=CARTESIAN_POINT('',(-12.5,0.,54.9732050807569));
#449=CARTESIAN_POINT('',(0.,0.,56.));
#450=CARTESIAN_POINT('',(0.,0.,-3.5));
#451=CARTESIAN_POINT('',(-7.9375,0.,-3.5));
#452=CARTESIAN_POINT('',(0.,0.,43.6875));
#453=CARTESIAN_POINT('',(7.9375,0.,43.6875));
#454=CARTESIAN_POINT('',(0.,0.,-4.1));
#455=CARTESIAN_POINT('',(0.,0.,-3.98284271247462));
#456=CARTESIAN_POINT('',(-14.0171572875254,0.,-3.98284271247462));
#457=CARTESIAN_POINT('',(0.,0.,-4.));
#458=CARTESIAN_POINT('',(-13.9988897061572,0.,-4.));
#459=CARTESIAN_POINT('',(0.,0.,-3.7));
#460=CARTESIAN_POINT('',(0.,0.,56.));
#461=CARTESIAN_POINT('',(11.6762395692966,0.,56.));
#462=CARTESIAN_POINT('',(0.,0.,56.));
#463=CARTESIAN_POINT('',(10.5386751345948,0.,56.));
#464=CARTESIAN_POINT('',(0.,0.,56.));
#465=CARTESIAN_POINT('',(0.,0.,0.399999999999999));
#466=CARTESIAN_POINT('',(12.35,0.,0.399999999999999));
#467=CARTESIAN_POINT('',(0.,0.,-5.37683679240941));
#468=CARTESIAN_POINT('',(0.,0.,-8.67361737988404E-16));
#469=CARTESIAN_POINT('',(12.75,0.,-8.67361737988404E-16));
#470=CARTESIAN_POINT('',(0.,0.,0.399999999999999));
#471=CARTESIAN_POINT('',(0.,0.,-3.25260651745651E-16));
#472=CARTESIAN_POINT('',(13.8343145750508,0.,-3.25260651745651E-16));
#473=CARTESIAN_POINT('',(12.75,0.,-3.52365706057789E-16));
#474=CARTESIAN_POINT('',(0.,0.,-1.16568542494924));
#475=CARTESIAN_POINT('',(15.,0.,-1.16568542494924));
#476=CARTESIAN_POINT('',(0.,0.,-2.83431457505076));
#477=CARTESIAN_POINT('',(-15.,0.,-2.83431457505076));
#478=CARTESIAN_POINT('',(0.,0.,-5.37683679240941));
#479=CARTESIAN_POINT('',(0.,0.,46.));
#480=CARTESIAN_POINT('',(-10.25,0.,46.));
#481=CARTESIAN_POINT('',(0.,0.,46.));
#482=CARTESIAN_POINT('',(0.,0.,55.5));
#483=CARTESIAN_POINT('',(10.25,0.,55.5));
#484=CARTESIAN_POINT('',(0.,0.,56.));
#485=CARTESIAN_POINT('',(0.,0.,56.));
#486=CARTESIAN_POINT('',(0.,0.,-3.11715728752538));
#487=CARTESIAN_POINT('',(-14.8828427124746,0.,-3.11715728752538));
#488=CARTESIAN_POINT('',(0.,0.,-3.));
#489=CARTESIAN_POINT('',(0.,0.,-0.11715728752538));
#490=CARTESIAN_POINT('',(14.1171572875254,0.,-0.11715728752538));
#491=CARTESIAN_POINT('',(0.,0.,-0.882842712474621));
#492=CARTESIAN_POINT('',(14.8828427124746,0.,-0.882842712474621));
#493=CARTESIAN_POINT('',(0.,0.,0.));
#494=CARTESIAN_POINT('',(0.,0.,55.6));
#495=CARTESIAN_POINT('',(0.,0.,-2.83431457505076));
#496=CARTESIAN_POINT('',(0.,0.,-1.16568542494924));
#497=CARTESIAN_POINT('',(0.,0.,-0.4));
#498=CARTESIAN_POINT('',(0.,0.,-4.));
#499=CARTESIAN_POINT('',(-8.4375,0.,-4.));
#500=CARTESIAN_POINT('',(15.,0.,-4.));
#501=CARTESIAN_POINT('',(0.,0.,60.));
#502=CARTESIAN_POINT('',(0.,0.,-3.5));
#503=MECHANICAL_DESIGN_GEOMETRIC_PRESENTATION_REPRESENTATION('',(#273,#274,
#275,#276,#277,#278,#279),#504);
#504=(
GEOMETRIC_REPRESENTATION_CONTEXT(3)
GLOBAL_UNCERTAINTY_ASSIGNED_CONTEXT((#505))
GLOBAL_UNIT_ASSIGNED_CONTEXT((#511,#507,#506))
REPRESENTATION_CONTEXT('1704283448964','TOP_LEVEL_ASSEMBLY_PART')
);
#505=UNCERTAINTY_MEASURE_WITH_UNIT(LENGTH_MEASURE(2.E-5),#511,
'DISTANCE_ACCURACY_VALUE','Maximum Tolerance applied to model');
#506=(
NAMED_UNIT(*)
SI_UNIT($,.STERADIAN.)
SOLID_ANGLE_UNIT()
);
#507=(
CONVERSION_BASED_UNIT('DEGREE',#509)
NAMED_UNIT(#508)
PLANE_ANGLE_UNIT()
);
#508=DIMENSIONAL_EXPONENTS(0.,0.,0.,0.,0.,0.,0.);
#509=PLANE_ANGLE_MEASURE_WITH_UNIT(PLANE_ANGLE_MEASURE(0.0174532925),#510);
#510=(
NAMED_UNIT(*)
PLANE_ANGLE_UNIT()
SI_UNIT($,.RADIAN.)
);
#511=(
LENGTH_UNIT()
NAMED_UNIT(*)
SI_UNIT(.MILLI.,.METRE.)
);
ENDSEC;
END-ISO-10303-21;
