ISO-10303-21;
HEADER;
/* Generated by software containing ST-Developer
 * from STEP Tools, Inc. (www.steptools.com) 
 */
/* OPTION: using custom schema-name function */

FILE_DESCRIPTION(
/* description */ (''),
/* implementation_level */ '2;1');

FILE_NAME(
/* name */ '1704273626911.stp',
/* time_stamp */ '2024-01-03T14:50:37+05:00',
/* author */ (''),
/* organization */ ('SMS'),
/* preprocessor_version */ 'ST-DEVELOPER v16.7',
/* originating_system */ 'SIEMENS PLM Software NX 12.0',
/* authorisation */ '');

FILE_SCHEMA (('AUTOMOTIVE_DESIGN { 1 0 10303 214 3 1 1 1 }'));
ENDSEC;

DATA;
#10=CONSTRUCTIVE_GEOMETRY_REPRESENTATION_RELATIONSHIP(
'supplemental geometry','',#26,#11);
#11=CONSTRUCTIVE_GEOMETRY_REPRESENTATION('supplemental geometry',(#318,
#319,#320),#544);
#12=GEOMETRICALLY_BOUNDED_WIREFRAME_SHAPE_REPRESENTATION(
'205082394mod000_00-None',(#27),#544);
#13=SHAPE_REPRESENTATION_RELATIONSHIP('None',
'relationship between 205082394mod000_00-None and 205082394mod000_00-N
one',#26,#15);
#14=SHAPE_REPRESENTATION_RELATIONSHIP('None',
'relationship between 205082394mod000_00-None and 205082394mod000_00-N
one',#26,#12);
#15=ADVANCED_BREP_SHAPE_REPRESENTATION('205082394mod000_00-None',(#33),
#544);
#16=SHAPE_DEFINITION_REPRESENTATION(#17,#26);
#17=PRODUCT_DEFINITION_SHAPE('','',#18);
#18=PRODUCT_DEFINITION(' ','',#20,#19);
#19=PRODUCT_DEFINITION_CONTEXT('part definition',#25,'design');
#20=PRODUCT_DEFINITION_FORMATION_WITH_SPECIFIED_SOURCE(' ',' ',#22,
 .NOT_KNOWN.);
#21=PRODUCT_RELATED_PRODUCT_CATEGORY('part','',(#22));
#22=PRODUCT('205082394mod000_00','205082394mod000_00',' ',(#23));
#23=PRODUCT_CONTEXT(' ',#25,'mechanical');
#24=APPLICATION_PROTOCOL_DEFINITION('international standard',
'automotive_design',2010,#25);
#25=APPLICATION_CONTEXT(
'core data for automotive mechanical design processes');
#26=SHAPE_REPRESENTATION('205082394mod000_00-None',(#317),#544);
#27=GEOMETRIC_CURVE_SET('None',(#468,#469,#470));
#28=SURFACE_STYLE_USAGE(.BOTH.,#29);
#29=SURFACE_SIDE_STYLE('',(#30));
#30=SURFACE_STYLE_FILL_AREA(#31);
#31=FILL_AREA_STYLE('',(#32));
#32=FILL_AREA_STYLE_COLOUR('',#316);
#33=MANIFOLD_SOLID_BREP('NOCUT',#34);
#34=CLOSED_SHELL('',(#51,#52,#53,#54,#55,#56,#57,#58,#59,#60,#61,#62,#63,
#64,#65,#66,#67,#68,#69,#70,#71,#72,#73));
#35=PLANE('',#335);
#36=PLANE('',#341);
#37=PLANE('',#364);
#38=TOROIDAL_SURFACE('',#332,13.7343145750508,0.4);
#39=TOROIDAL_SURFACE('',#339,12.75,0.4);
#40=TOROIDAL_SURFACE('',#359,11.6762395692966,0.4);
#41=TOROIDAL_SURFACE('',#360,14.6,0.4);
#42=TOROIDAL_SURFACE('',#361,14.6,0.4);
#43=TOROIDAL_SURFACE('',#362,13.8343145750508,0.4);
#44=TOROIDAL_SURFACE('',#366,4.46875,0.5);
#45=CYLINDRICAL_SURFACE('',#329,3.96875);
#46=CYLINDRICAL_SURFACE('',#337,12.35);
#47=CYLINDRICAL_SURFACE('',#344,15.);
#48=CYLINDRICAL_SURFACE('',#349,10.25);
#49=CYLINDRICAL_SURFACE('',#352,5.);
#50=CYLINDRICAL_SURFACE('',#365,12.5);
#51=ADVANCED_FACE('',(#81,#82),#74,.T.);
#52=ADVANCED_FACE('',(#83,#84),#75,.T.);
#53=ADVANCED_FACE('',(#85,#86),#45,.F.);
#54=ADVANCED_FACE('',(#87,#88),#38,.T.);
#55=ADVANCED_FACE('',(#89,#90),#35,.T.);
#56=ADVANCED_FACE('',(#91,#92),#46,.T.);
#57=ADVANCED_FACE('',(#93,#94),#39,.F.);
#58=ADVANCED_FACE('',(#95,#96),#36,.T.);
#59=ADVANCED_FACE('',(#97,#98),#47,.T.);
#60=ADVANCED_FACE('',(#99,#100),#76,.F.);
#61=ADVANCED_FACE('',(#101,#102),#48,.F.);
#62=ADVANCED_FACE('',(#103,#104),#77,.F.);
#63=ADVANCED_FACE('',(#105,#106),#49,.F.);
#64=ADVANCED_FACE('',(#107,#108),#78,.F.);
#65=ADVANCED_FACE('',(#109,#110),#79,.T.);
#66=ADVANCED_FACE('',(#111,#112),#80,.T.);
#67=ADVANCED_FACE('',(#113,#114),#40,.T.);
#68=ADVANCED_FACE('',(#115,#116),#41,.T.);
#69=ADVANCED_FACE('',(#117,#118),#42,.T.);
#70=ADVANCED_FACE('',(#119,#120),#43,.T.);
#71=ADVANCED_FACE('',(#121,#122),#37,.T.);
#72=ADVANCED_FACE('',(#123,#124),#50,.T.);
#73=ADVANCED_FACE('',(#125,#126),#44,.T.);
#74=CONICAL_SURFACE('',#323,12.6,14.9999999999999);
#75=CONICAL_SURFACE('',#326,11.9071796769724,30.);
#76=CONICAL_SURFACE('',#347,10.25,45.);
#77=CONICAL_SURFACE('',#351,5.,60.0000000000001);
#78=CONICAL_SURFACE('',#353,10.5386751345948,30.);
#79=CONICAL_SURFACE('',#355,15.,45.);
#80=CONICAL_SURFACE('',#358,14.,45.);
#81=FACE_BOUND('',#127,.T.);
#82=FACE_BOUND('',#128,.T.);
#83=FACE_BOUND('',#129,.T.);
#84=FACE_BOUND('',#130,.T.);
#85=FACE_BOUND('',#131,.T.);
#86=FACE_BOUND('',#132,.T.);
#87=FACE_BOUND('',#133,.T.);
#88=FACE_BOUND('',#134,.T.);
#89=FACE_BOUND('',#135,.T.);
#90=FACE_BOUND('',#136,.T.);
#91=FACE_BOUND('',#137,.T.);
#92=FACE_BOUND('',#138,.T.);
#93=FACE_BOUND('',#139,.T.);
#94=FACE_BOUND('',#140,.T.);
#95=FACE_BOUND('',#141,.T.);
#96=FACE_BOUND('',#142,.T.);
#97=FACE_BOUND('',#143,.T.);
#98=FACE_BOUND('',#144,.T.);
#99=FACE_BOUND('',#145,.T.);
#100=FACE_BOUND('',#146,.T.);
#101=FACE_BOUND('',#147,.T.);
#102=FACE_BOUND('',#148,.T.);
#103=FACE_BOUND('',#149,.T.);
#104=FACE_BOUND('',#150,.T.);
#105=FACE_BOUND('',#151,.T.);
#106=FACE_BOUND('',#152,.T.);
#107=FACE_BOUND('',#153,.T.);
#108=FACE_BOUND('',#154,.T.);
#109=FACE_BOUND('',#155,.T.);
#110=FACE_BOUND('',#156,.T.);
#111=FACE_BOUND('',#157,.T.);
#112=FACE_BOUND('',#158,.T.);
#113=FACE_BOUND('',#159,.T.);
#114=FACE_BOUND('',#160,.T.);
#115=FACE_BOUND('',#161,.T.);
#116=FACE_BOUND('',#162,.T.);
#117=FACE_BOUND('',#163,.T.);
#118=FACE_BOUND('',#164,.T.);
#119=FACE_BOUND('',#165,.T.);
#120=FACE_BOUND('',#166,.T.);
#121=FACE_BOUND('',#167,.T.);
#122=FACE_BOUND('',#168,.T.);
#123=FACE_BOUND('',#169,.T.);
#124=FACE_BOUND('',#170,.T.);
#125=FACE_BOUND('',#171,.T.);
#126=FACE_BOUND('',#172,.T.);
#127=EDGE_LOOP('',(#173));
#128=EDGE_LOOP('',(#174));
#129=EDGE_LOOP('',(#175));
#130=EDGE_LOOP('',(#176));
#131=EDGE_LOOP('',(#177));
#132=EDGE_LOOP('',(#178));
#133=EDGE_LOOP('',(#179));
#134=EDGE_LOOP('',(#180));
#135=EDGE_LOOP('',(#181));
#136=EDGE_LOOP('',(#182));
#137=EDGE_LOOP('',(#183));
#138=EDGE_LOOP('',(#184));
#139=EDGE_LOOP('',(#185));
#140=EDGE_LOOP('',(#186));
#141=EDGE_LOOP('',(#187));
#142=EDGE_LOOP('',(#188));
#143=EDGE_LOOP('',(#189));
#144=EDGE_LOOP('',(#190));
#145=EDGE_LOOP('',(#191));
#146=EDGE_LOOP('',(#192));
#147=EDGE_LOOP('',(#193));
#148=EDGE_LOOP('',(#194));
#149=EDGE_LOOP('',(#195));
#150=EDGE_LOOP('',(#196));
#151=EDGE_LOOP('',(#197));
#152=EDGE_LOOP('',(#198));
#153=EDGE_LOOP('',(#199));
#154=EDGE_LOOP('',(#200));
#155=EDGE_LOOP('',(#201));
#156=EDGE_LOOP('',(#202));
#157=EDGE_LOOP('',(#203));
#158=EDGE_LOOP('',(#204));
#159=EDGE_LOOP('',(#205));
#160=EDGE_LOOP('',(#206));
#161=EDGE_LOOP('',(#207));
#162=EDGE_LOOP('',(#208));
#163=EDGE_LOOP('',(#209));
#164=EDGE_LOOP('',(#210));
#165=EDGE_LOOP('',(#211));
#166=EDGE_LOOP('',(#212));
#167=EDGE_LOOP('',(#213));
#168=EDGE_LOOP('',(#214));
#169=EDGE_LOOP('',(#215));
#170=EDGE_LOOP('',(#216));
#171=EDGE_LOOP('',(#217));
#172=EDGE_LOOP('',(#218));
#173=ORIENTED_EDGE('',*,*,#242,.T.);
#174=ORIENTED_EDGE('',*,*,#243,.T.);
#175=ORIENTED_EDGE('',*,*,#244,.T.);
#176=ORIENTED_EDGE('',*,*,#245,.T.);
#177=ORIENTED_EDGE('',*,*,#246,.T.);
#178=ORIENTED_EDGE('',*,*,#247,.T.);
#179=ORIENTED_EDGE('',*,*,#248,.F.);
#180=ORIENTED_EDGE('',*,*,#249,.T.);
#181=ORIENTED_EDGE('',*,*,#250,.T.);
#182=ORIENTED_EDGE('',*,*,#251,.T.);
#183=ORIENTED_EDGE('',*,*,#252,.T.);
#184=ORIENTED_EDGE('',*,*,#242,.F.);
#185=ORIENTED_EDGE('',*,*,#253,.T.);
#186=ORIENTED_EDGE('',*,*,#252,.F.);
#187=ORIENTED_EDGE('',*,*,#254,.T.);
#188=ORIENTED_EDGE('',*,*,#253,.F.);
#189=ORIENTED_EDGE('',*,*,#255,.T.);
#190=ORIENTED_EDGE('',*,*,#256,.T.);
#191=ORIENTED_EDGE('',*,*,#257,.T.);
#192=ORIENTED_EDGE('',*,*,#258,.F.);
#193=ORIENTED_EDGE('',*,*,#259,.T.);
#194=ORIENTED_EDGE('',*,*,#258,.T.);
#195=ORIENTED_EDGE('',*,*,#260,.F.);
#196=ORIENTED_EDGE('',*,*,#247,.F.);
#197=ORIENTED_EDGE('',*,*,#260,.T.);
#198=ORIENTED_EDGE('',*,*,#257,.F.);
#199=ORIENTED_EDGE('',*,*,#259,.F.);
#200=ORIENTED_EDGE('',*,*,#251,.F.);
#201=ORIENTED_EDGE('',*,*,#261,.T.);
#202=ORIENTED_EDGE('',*,*,#248,.T.);
#203=ORIENTED_EDGE('',*,*,#262,.T.);
#204=ORIENTED_EDGE('',*,*,#263,.T.);
#205=ORIENTED_EDGE('',*,*,#244,.F.);
#206=ORIENTED_EDGE('',*,*,#250,.F.);
#207=ORIENTED_EDGE('',*,*,#261,.F.);
#208=ORIENTED_EDGE('',*,*,#256,.F.);
#209=ORIENTED_EDGE('',*,*,#263,.F.);
#210=ORIENTED_EDGE('',*,*,#255,.F.);
#211=ORIENTED_EDGE('',*,*,#262,.F.);
#212=ORIENTED_EDGE('',*,*,#254,.F.);
#213=ORIENTED_EDGE('',*,*,#264,.T.);
#214=ORIENTED_EDGE('',*,*,#249,.F.);
#215=ORIENTED_EDGE('',*,*,#243,.F.);
#216=ORIENTED_EDGE('',*,*,#245,.F.);
#217=ORIENTED_EDGE('',*,*,#246,.F.);
#218=ORIENTED_EDGE('',*,*,#264,.F.);
#219=VERTEX_POINT('',#475);
#220=VERTEX_POINT('',#477);
#221=VERTEX_POINT('',#480);
#222=VERTEX_POINT('',#482);
#223=VERTEX_POINT('',#485);
#224=VERTEX_POINT('',#487);
#225=VERTEX_POINT('',#490);
#226=VERTEX_POINT('',#492);
#227=VERTEX_POINT('',#495);
#228=VERTEX_POINT('',#497);
#229=VERTEX_POINT('',#500);
#230=VERTEX_POINT('',#503);
#231=VERTEX_POINT('',#506);
#232=VERTEX_POINT('',#509);
#233=VERTEX_POINT('',#511);
#234=VERTEX_POINT('',#514);
#235=VERTEX_POINT('',#516);
#236=VERTEX_POINT('',#519);
#237=VERTEX_POINT('',#522);
#238=VERTEX_POINT('',#527);
#239=VERTEX_POINT('',#530);
#240=VERTEX_POINT('',#532);
#241=VERTEX_POINT('',#539);
#242=EDGE_CURVE('',#219,#219,#265,.T.);
#243=EDGE_CURVE('',#220,#220,#266,.T.);
#244=EDGE_CURVE('',#221,#221,#267,.T.);
#245=EDGE_CURVE('',#222,#222,#268,.T.);
#246=EDGE_CURVE('',#223,#223,#269,.T.);
#247=EDGE_CURVE('',#224,#224,#270,.T.);
#248=EDGE_CURVE('',#225,#225,#271,.T.);
#249=EDGE_CURVE('',#226,#226,#272,.T.);
#250=EDGE_CURVE('',#227,#227,#273,.T.);
#251=EDGE_CURVE('',#228,#228,#274,.T.);
#252=EDGE_CURVE('',#229,#229,#275,.T.);
#253=EDGE_CURVE('',#230,#230,#276,.T.);
#254=EDGE_CURVE('',#231,#231,#277,.T.);
#255=EDGE_CURVE('',#232,#232,#278,.T.);
#256=EDGE_CURVE('',#233,#233,#279,.T.);
#257=EDGE_CURVE('',#234,#234,#280,.T.);
#258=EDGE_CURVE('',#235,#235,#281,.T.);
#259=EDGE_CURVE('',#236,#236,#282,.T.);
#260=EDGE_CURVE('',#237,#237,#283,.T.);
#261=EDGE_CURVE('',#238,#238,#284,.T.);
#262=EDGE_CURVE('',#239,#239,#285,.T.);
#263=EDGE_CURVE('',#240,#240,#286,.T.);
#264=EDGE_CURVE('',#241,#241,#287,.T.);
#265=CIRCLE('',#321,12.35);
#266=CIRCLE('',#322,12.5);
#267=CIRCLE('',#324,12.0226497308104);
#268=CIRCLE('',#325,12.5);
#269=CIRCLE('',#327,3.96875);
#270=CIRCLE('',#328,3.96875);
#271=CIRCLE('',#330,14.0171572875254);
#272=CIRCLE('',#331,13.9988897061572);
#273=CIRCLE('',#333,11.6762395692966);
#274=CIRCLE('',#334,10.5386751345948);
#275=CIRCLE('',#336,12.35);
#276=CIRCLE('',#338,12.75);
#277=CIRCLE('',#340,13.8343145750508);
#278=CIRCLE('',#342,15.);
#279=CIRCLE('',#343,15.);
#280=CIRCLE('',#345,5.);
#281=CIRCLE('',#346,10.25);
#282=CIRCLE('',#348,10.25);
#283=CIRCLE('',#350,5.);
#284=CIRCLE('',#354,14.8828427124746);
#285=CIRCLE('',#356,14.1171572875254);
#286=CIRCLE('',#357,14.8828427124746);
#287=CIRCLE('',#363,4.46875);
#288=CURVE_STYLE('',#291,POSITIVE_LENGTH_MEASURE(0.18),#315);
#289=CURVE_STYLE('',#292,POSITIVE_LENGTH_MEASURE(0.18),#315);
#290=CURVE_STYLE('',#293,POSITIVE_LENGTH_MEASURE(0.18),#315);
#291=DRAUGHTING_PRE_DEFINED_CURVE_FONT('continuous');
#292=DRAUGHTING_PRE_DEFINED_CURVE_FONT('continuous');
#293=DRAUGHTING_PRE_DEFINED_CURVE_FONT('continuous');
#294=PRESENTATION_LAYER_ASSIGNMENT('1','Layer 1',(#468,#469,#470,#318,#319,
#320,#33));
#295=STYLED_ITEM('',(#302),#468);
#296=STYLED_ITEM('',(#303),#469);
#297=STYLED_ITEM('',(#304),#470);
#298=STYLED_ITEM('',(#305),#318);
#299=STYLED_ITEM('',(#306),#319);
#300=STYLED_ITEM('',(#307),#320);
#301=STYLED_ITEM('',(#308),#33);
#302=PRESENTATION_STYLE_ASSIGNMENT((#309));
#303=PRESENTATION_STYLE_ASSIGNMENT((#310));
#304=PRESENTATION_STYLE_ASSIGNMENT((#311));
#305=PRESENTATION_STYLE_ASSIGNMENT((#288));
#306=PRESENTATION_STYLE_ASSIGNMENT((#289));
#307=PRESENTATION_STYLE_ASSIGNMENT((#290));
#308=PRESENTATION_STYLE_ASSIGNMENT((#28));
#309=POINT_STYLE('',#312,POSITIVE_LENGTH_MEASURE(3.),#315);
#310=POINT_STYLE('',#313,POSITIVE_LENGTH_MEASURE(3.),#315);
#311=POINT_STYLE('',#314,POSITIVE_LENGTH_MEASURE(3.),#315);
#312=PRE_DEFINED_POINT_MARKER_SYMBOL('plus');
#313=PRE_DEFINED_POINT_MARKER_SYMBOL('plus');
#314=PRE_DEFINED_POINT_MARKER_SYMBOL('plus');
#315=COLOUR_RGB('Medium Maroon',0.6,0.4,0.4);
#316=COLOUR_RGB('Medium Gray',0.501960784313725,0.501960784313725,0.501960784313725);
#317=AXIS2_PLACEMENT_3D('',#467,#367,#368);
#318=AXIS2_PLACEMENT_3D('PCS',#471,#369,#370);
#319=AXIS2_PLACEMENT_3D('MCS',#472,#371,#372);
#320=AXIS2_PLACEMENT_3D('CSW',#473,#373,#374);
#321=AXIS2_PLACEMENT_3D('',#474,#375,#376);
#322=AXIS2_PLACEMENT_3D('',#476,#377,#378);
#323=AXIS2_PLACEMENT_3D('',#478,#379,#380);
#324=AXIS2_PLACEMENT_3D('',#479,#381,#382);
#325=AXIS2_PLACEMENT_3D('',#481,#383,#384);
#326=AXIS2_PLACEMENT_3D('',#483,#385,#386);
#327=AXIS2_PLACEMENT_3D('',#484,#387,#388);
#328=AXIS2_PLACEMENT_3D('',#486,#389,#390);
#329=AXIS2_PLACEMENT_3D('',#488,#391,#392);
#330=AXIS2_PLACEMENT_3D('',#489,#393,#394);
#331=AXIS2_PLACEMENT_3D('',#491,#395,#396);
#332=AXIS2_PLACEMENT_3D('',#493,#397,#398);
#333=AXIS2_PLACEMENT_3D('',#494,#399,#400);
#334=AXIS2_PLACEMENT_3D('',#496,#401,#402);
#335=AXIS2_PLACEMENT_3D('',#498,#403,#404);
#336=AXIS2_PLACEMENT_3D('',#499,#405,#406);
#337=AXIS2_PLACEMENT_3D('',#501,#407,#408);
#338=AXIS2_PLACEMENT_3D('',#502,#409,#410);
#339=AXIS2_PLACEMENT_3D('',#504,#411,#412);
#340=AXIS2_PLACEMENT_3D('',#505,#413,#414);
#341=AXIS2_PLACEMENT_3D('',#507,#415,#416);
#342=AXIS2_PLACEMENT_3D('',#508,#417,#418);
#343=AXIS2_PLACEMENT_3D('',#510,#419,#420);
#344=AXIS2_PLACEMENT_3D('',#512,#421,#422);
#345=AXIS2_PLACEMENT_3D('',#513,#423,#424);
#346=AXIS2_PLACEMENT_3D('',#515,#425,#426);
#347=AXIS2_PLACEMENT_3D('',#517,#427,#428);
#348=AXIS2_PLACEMENT_3D('',#518,#429,#430);
#349=AXIS2_PLACEMENT_3D('',#520,#431,#432);
#350=AXIS2_PLACEMENT_3D('',#521,#433,#434);
#351=AXIS2_PLACEMENT_3D('',#523,#435,#436);
#352=AXIS2_PLACEMENT_3D('',#524,#437,#438);
#353=AXIS2_PLACEMENT_3D('',#525,#439,#440);
#354=AXIS2_PLACEMENT_3D('',#526,#441,#442);
#355=AXIS2_PLACEMENT_3D('',#528,#443,#444);
#356=AXIS2_PLACEMENT_3D('',#529,#445,#446);
#357=AXIS2_PLACEMENT_3D('',#531,#447,#448);
#358=AXIS2_PLACEMENT_3D('',#533,#449,#450);
#359=AXIS2_PLACEMENT_3D('',#534,#451,#452);
#360=AXIS2_PLACEMENT_3D('',#535,#453,#454);
#361=AXIS2_PLACEMENT_3D('',#536,#455,#456);
#362=AXIS2_PLACEMENT_3D('',#537,#457,#458);
#363=AXIS2_PLACEMENT_3D('',#538,#459,#460);
#364=AXIS2_PLACEMENT_3D('',#540,#461,#462);
#365=AXIS2_PLACEMENT_3D('',#541,#463,#464);
#366=AXIS2_PLACEMENT_3D('',#542,#465,#466);
#367=DIRECTION('',(0.,0.,1.));
#368=DIRECTION('',(1.,0.,0.));
#369=DIRECTION('',(0.,0.,1.));
#370=DIRECTION('',(1.,0.,0.));
#371=DIRECTION('',(0.,0.,1.));
#372=DIRECTION('',(1.,0.,0.));
#373=DIRECTION('',(0.,0.,1.));
#374=DIRECTION('',(1.,0.,0.));
#375=DIRECTION('',(0.,0.,1.));
#376=DIRECTION('',(1.,0.,0.));
#377=DIRECTION('',(0.,0.,-1.));
#378=DIRECTION('',(1.,0.,0.));
#379=DIRECTION('',(0.,0.,1.));
#380=DIRECTION('',(-1.,0.,-1.90136875547711E-16));
#381=DIRECTION('',(0.,0.,-1.));
#382=DIRECTION('',(1.,0.,0.));
#383=DIRECTION('',(0.,0.,1.));
#384=DIRECTION('',(-1.,0.,0.));
#385=DIRECTION('',(0.,0.,-1.));
#386=DIRECTION('',(1.,0.,8.24296025799529E-17));
#387=DIRECTION('',(0.,0.,-1.));
#388=DIRECTION('',(-1.,0.,0.));
#389=DIRECTION('',(0.,0.,1.));
#390=DIRECTION('',(1.,0.,0.));
#391=DIRECTION('',(0.,0.,1.));
#392=DIRECTION('',(1.,0.,0.));
#393=DIRECTION('',(0.,0.,1.));
#394=DIRECTION('',(-1.,0.,0.));
#395=DIRECTION('',(0.,0.,1.));
#396=DIRECTION('',(-1.,0.,0.));
#397=DIRECTION('',(0.,0.,-1.));
#398=DIRECTION('',(1.,0.,0.));
#399=DIRECTION('',(0.,0.,1.));
#400=DIRECTION('',(1.,0.,0.));
#401=DIRECTION('',(0.,0.,-1.));
#402=DIRECTION('',(1.,0.,0.));
#403=DIRECTION('',(0.,0.,1.));
#404=DIRECTION('',(-1.,0.,0.));
#405=DIRECTION('',(0.,0.,1.));
#406=DIRECTION('',(1.,0.,0.));
#407=DIRECTION('',(0.,0.,1.));
#408=DIRECTION('',(-1.,0.,0.));
#409=DIRECTION('',(0.,0.,1.));
#410=DIRECTION('',(1.,0.,0.));
#411=DIRECTION('',(0.,0.,1.));
#412=DIRECTION('',(-1.,0.,0.));
#413=DIRECTION('',(0.,0.,1.));
#414=DIRECTION('',(1.,0.,0.));
#415=DIRECTION('',(0.,0.,1.));
#416=DIRECTION('',(-1.,0.,0.));
#417=DIRECTION('',(0.,0.,-1.));
#418=DIRECTION('',(1.,0.,0.));
#419=DIRECTION('',(0.,0.,1.));
#420=DIRECTION('',(-1.,0.,0.));
#421=DIRECTION('',(0.,0.,1.));
#422=DIRECTION('',(-1.,0.,0.));
#423=DIRECTION('',(0.,0.,-1.));
#424=DIRECTION('',(1.,0.,0.));
#425=DIRECTION('',(0.,0.,-1.));
#426=DIRECTION('',(-1.,0.,0.));
#427=DIRECTION('',(0.,0.,1.));
#428=DIRECTION('',(1.,0.,4.12109511739108E-17));
#429=DIRECTION('',(0.,0.,1.));
#430=DIRECTION('',(1.,0.,0.));
#431=DIRECTION('',(0.,0.,-1.));
#432=DIRECTION('',(-1.,0.,0.));
#433=DIRECTION('',(0.,0.,-1.));
#434=DIRECTION('',(-1.,0.,0.));
#435=DIRECTION('',(0.,0.,1.));
#436=DIRECTION('',(1.,0.,1.59785629151945E-17));
#437=DIRECTION('',(0.,0.,-1.));
#438=DIRECTION('',(-1.,0.,0.));
#439=DIRECTION('',(0.,0.,1.));
#440=DIRECTION('',(-1.,0.,8.26214845444739E-17));
#441=DIRECTION('',(0.,0.,-1.));
#442=DIRECTION('',(-1.,0.,0.));
#443=DIRECTION('',(0.,0.,1.));
#444=DIRECTION('',(-1.,0.,-2.56363075267509E-18));
#445=DIRECTION('',(0.,0.,-1.));
#446=DIRECTION('',(1.,0.,0.));
#447=DIRECTION('',(0.,0.,1.));
#448=DIRECTION('',(1.,0.,0.));
#449=DIRECTION('',(0.,0.,-1.));
#450=DIRECTION('',(1.,0.,0.));
#451=DIRECTION('',(0.,0.,1.));
#452=DIRECTION('',(-1.,0.,0.));
#453=DIRECTION('',(0.,0.,-1.));
#454=DIRECTION('',(1.,0.,0.));
#455=DIRECTION('',(0.,0.,1.));
#456=DIRECTION('',(-1.,0.,0.));
#457=DIRECTION('',(0.,0.,1.));
#458=DIRECTION('',(-1.,0.,0.));
#459=DIRECTION('',(0.,0.,1.));
#460=DIRECTION('',(-1.,0.,0.));
#461=DIRECTION('',(0.,0.,-1.));
#462=DIRECTION('',(1.,0.,0.));
#463=DIRECTION('',(0.,0.,1.));
#464=DIRECTION('',(-1.,0.,0.));
#465=DIRECTION('',(0.,0.,-1.));
#466=DIRECTION('',(1.,0.,0.));
#467=CARTESIAN_POINT('',(0.,0.,0.));
#468=CARTESIAN_POINT('',(0.,0.,0.));
#469=CARTESIAN_POINT('',(0.,0.,0.));
#470=CARTESIAN_POINT('',(0.,0.,-4.));
#471=CARTESIAN_POINT('',(0.,0.,0.));
#472=CARTESIAN_POINT('',(0.,0.,0.));
#473=CARTESIAN_POINT('',(0.,0.,-4.));
#474=CARTESIAN_POINT('',(0.,0.,1.56698729810778));
#475=CARTESIAN_POINT('',(12.35,0.,1.56698729810778));
#476=CARTESIAN_POINT('',(0.,0.,2.12679491924311));
#477=CARTESIAN_POINT('',(12.5,0.,2.12679491924311));
#478=CARTESIAN_POINT('',(0.,0.,2.5));
#479=CARTESIAN_POINT('',(0.,0.,55.8));
#480=CARTESIAN_POINT('',(12.0226497308104,0.,55.8));
#481=CARTESIAN_POINT('',(0.,0.,54.9732050807569));
#482=CARTESIAN_POINT('',(-12.5,0.,54.9732050807569));
#483=CARTESIAN_POINT('',(0.,0.,56.));
#484=CARTESIAN_POINT('',(0.,0.,-3.5));
#485=CARTESIAN_POINT('',(-3.96875,0.,-3.5));
#486=CARTESIAN_POINT('',(0.,0.,33.4046075348982));
#487=CARTESIAN_POINT('',(3.96875,0.,33.4046075348982));
#488=CARTESIAN_POINT('',(0.,0.,-4.1));
#489=CARTESIAN_POINT('',(0.,0.,-3.98284271247462));
#490=CARTESIAN_POINT('',(-14.0171572875254,0.,-3.98284271247462));
#491=CARTESIAN_POINT('',(0.,0.,-4.));
#492=CARTESIAN_POINT('',(-13.9988897061572,0.,-4.));
#493=CARTESIAN_POINT('',(0.,0.,-3.7));
#494=CARTESIAN_POINT('',(0.,0.,56.));
#495=CARTESIAN_POINT('',(11.6762395692966,0.,56.));
#496=CARTESIAN_POINT('',(0.,0.,56.));
#497=CARTESIAN_POINT('',(10.5386751345948,0.,56.));
#498=CARTESIAN_POINT('',(0.,0.,56.));
#499=CARTESIAN_POINT('',(0.,0.,0.399999999999999));
#500=CARTESIAN_POINT('',(12.35,0.,0.399999999999999));
#501=CARTESIAN_POINT('',(0.,0.,-5.37683679240941));
#502=CARTESIAN_POINT('',(0.,0.,-8.67361737988404E-16));
#503=CARTESIAN_POINT('',(12.75,0.,-8.67361737988404E-16));
#504=CARTESIAN_POINT('',(0.,0.,0.399999999999999));
#505=CARTESIAN_POINT('',(0.,0.,-3.25260651745651E-16));
#506=CARTESIAN_POINT('',(13.8343145750508,0.,-3.25260651745651E-16));
#507=CARTESIAN_POINT('',(12.75,0.,-3.52365706057789E-16));
#508=CARTESIAN_POINT('',(0.,0.,-1.16568542494924));
#509=CARTESIAN_POINT('',(15.,0.,-1.16568542494924));
#510=CARTESIAN_POINT('',(0.,0.,-2.83431457505076));
#511=CARTESIAN_POINT('',(-15.,0.,-2.83431457505076));
#512=CARTESIAN_POINT('',(0.,0.,-5.37683679240941));
#513=CARTESIAN_POINT('',(0.,0.,40.75));
#514=CARTESIAN_POINT('',(5.,0.,40.75));
#515=CARTESIAN_POINT('',(0.,0.,46.));
#516=CARTESIAN_POINT('',(-10.25,0.,46.));
#517=CARTESIAN_POINT('',(0.,0.,46.));
#518=CARTESIAN_POINT('',(0.,0.,55.5));
#519=CARTESIAN_POINT('',(10.25,0.,55.5));
#520=CARTESIAN_POINT('',(0.,0.,56.));
#521=CARTESIAN_POINT('',(0.,0.,34.));
#522=CARTESIAN_POINT('',(-5.,0.,34.));
#523=CARTESIAN_POINT('',(0.,0.,34.));
#524=CARTESIAN_POINT('',(0.,0.,56.));
#525=CARTESIAN_POINT('',(0.,0.,56.));
#526=CARTESIAN_POINT('',(0.,0.,-3.11715728752538));
#527=CARTESIAN_POINT('',(-14.8828427124746,0.,-3.11715728752538));
#528=CARTESIAN_POINT('',(0.,0.,-3.));
#529=CARTESIAN_POINT('',(0.,0.,-0.11715728752538));
#530=CARTESIAN_POINT('',(14.1171572875254,0.,-0.11715728752538));
#531=CARTESIAN_POINT('',(0.,0.,-0.882842712474621));
#532=CARTESIAN_POINT('',(14.8828427124746,0.,-0.882842712474621));
#533=CARTESIAN_POINT('',(0.,0.,0.));
#534=CARTESIAN_POINT('',(0.,0.,55.6));
#535=CARTESIAN_POINT('',(0.,0.,-2.83431457505076));
#536=CARTESIAN_POINT('',(0.,0.,-1.16568542494924));
#537=CARTESIAN_POINT('',(0.,0.,-0.4));
#538=CARTESIAN_POINT('',(0.,0.,-4.));
#539=CARTESIAN_POINT('',(-4.46875,0.,-4.));
#540=CARTESIAN_POINT('',(15.,0.,-4.));
#541=CARTESIAN_POINT('',(0.,0.,60.));
#542=CARTESIAN_POINT('',(0.,0.,-3.5));
#543=MECHANICAL_DESIGN_GEOMETRIC_PRESENTATION_REPRESENTATION('',(#295,#296,
#297,#298,#299,#300,#301),#544);
#544=(
GEOMETRIC_REPRESENTATION_CONTEXT(3)
GLOBAL_UNCERTAINTY_ASSIGNED_CONTEXT((#545))
GLOBAL_UNIT_ASSIGNED_CONTEXT((#551,#547,#546))
REPRESENTATION_CONTEXT('1704273626911','TOP_LEVEL_ASSEMBLY_PART')
);
#545=UNCERTAINTY_MEASURE_WITH_UNIT(LENGTH_MEASURE(2.E-5),#551,
'DISTANCE_ACCURACY_VALUE','Maximum Tolerance applied to model');
#546=(
NAMED_UNIT(*)
SI_UNIT($,.STERADIAN.)
SOLID_ANGLE_UNIT()
);
#547=(
CONVERSION_BASED_UNIT('DEGREE',#549)
NAMED_UNIT(#548)
PLANE_ANGLE_UNIT()
);
#548=DIMENSIONAL_EXPONENTS(0.,0.,0.,0.,0.,0.,0.);
#549=PLANE_ANGLE_MEASURE_WITH_UNIT(PLANE_ANGLE_MEASURE(0.0174532925),#550);
#550=(
NAMED_UNIT(*)
PLANE_ANGLE_UNIT()
SI_UNIT($,.RADIAN.)
);
#551=(
LENGTH_UNIT()
NAMED_UNIT(*)
SI_UNIT(.MILLI.,.METRE.)
);
ENDSEC;
END-ISO-10303-21;
