ISO-10303-21;
HEADER;
/* Generated by software containing ST-Developer
 * from STEP Tools, Inc. (www.steptools.com) 
 */
/* OPTION: using custom schema-name function */

FILE_DESCRIPTION(
/* description */ (''),
/* implementation_level */ '2;1');

FILE_NAME(
/* name */ '1704269780024.stp',
/* time_stamp */ '2024-01-03T13:46:30+05:00',
/* author */ (''),
/* organization */ ('SMS'),
/* preprocessor_version */ 'ST-DEVELOPER v16.7',
/* originating_system */ 'SIEMENS PLM Software NX 12.0',
/* authorisation */ '');

FILE_SCHEMA (('AUTOMOTIVE_DESIGN { 1 0 10303 214 3 1 1 1 }'));
ENDSEC;

DATA;
#10=CONSTRUCTIVE_GEOMETRY_REPRESENTATION_RELATIONSHIP(
'supplemental geometry','',#26,#11);
#11=CONSTRUCTIVE_GEOMETRY_REPRESENTATION('supplemental geometry',(#241,
#242,#243),#404);
#12=GEOMETRICALLY_BOUNDED_WIREFRAME_SHAPE_REPRESENTATION(
'205082173mod000_00-None',(#27),#404);
#13=SHAPE_REPRESENTATION_RELATIONSHIP('None',
'relationship between 205082173mod000_00-None and 205082173mod000_00-N
one',#26,#15);
#14=SHAPE_REPRESENTATION_RELATIONSHIP('None',
'relationship between 205082173mod000_00-None and 205082173mod000_00-N
one',#26,#12);
#15=ADVANCED_BREP_SHAPE_REPRESENTATION('205082173mod000_00-None',(#33),
#404);
#16=SHAPE_DEFINITION_REPRESENTATION(#17,#26);
#17=PRODUCT_DEFINITION_SHAPE('','',#18);
#18=PRODUCT_DEFINITION(' ','',#20,#19);
#19=PRODUCT_DEFINITION_CONTEXT('part definition',#25,'design');
#20=PRODUCT_DEFINITION_FORMATION_WITH_SPECIFIED_SOURCE(' ',' ',#22,
 .NOT_KNOWN.);
#21=PRODUCT_RELATED_PRODUCT_CATEGORY('part','',(#22));
#22=PRODUCT('205082173mod000_00','205082173mod000_00',' ',(#23));
#23=PRODUCT_CONTEXT(' ',#25,'mechanical');
#24=APPLICATION_PROTOCOL_DEFINITION('international standard',
'automotive_design',2010,#25);
#25=APPLICATION_CONTEXT(
'core data for automotive mechanical design processes');
#26=SHAPE_REPRESENTATION('205082173mod000_00-None',(#240),#404);
#27=GEOMETRIC_CURVE_SET('None',(#349,#350,#351));
#28=SURFACE_STYLE_USAGE(.BOTH.,#29);
#29=SURFACE_SIDE_STYLE('',(#30));
#30=SURFACE_STYLE_FILL_AREA(#31);
#31=FILL_AREA_STYLE('',(#32));
#32=FILL_AREA_STYLE_COLOUR('',#239);
#33=MANIFOLD_SOLID_BREP('NOCUT',#34);
#34=CLOSED_SHELL('',(#48,#49,#50,#51,#52,#53,#54,#55,#56,#57,#58,#59,#60,
#61,#62,#63));
#35=TOROIDAL_SURFACE('',#268,6.25,0.4);
#36=TOROIDAL_SURFACE('',#274,4.46875,0.5);
#37=CYLINDRICAL_SURFACE('',#255,8.);
#38=CYLINDRICAL_SURFACE('',#261,5.85);
#39=CYLINDRICAL_SURFACE('',#265,6.);
#40=CYLINDRICAL_SURFACE('',#267,4.1);
#41=CYLINDRICAL_SURFACE('',#273,3.96875);
#42=CONICAL_SURFACE('',#249,4.1,30.);
#43=CONICAL_SURFACE('',#263,5.85,15.);
#44=CONICAL_SURFACE('',#269,7.,45.);
#45=CONICAL_SURFACE('',#270,5.65358983848623,29.9999999999999);
#46=CONICAL_SURFACE('',#271,8.,45.);
#47=CONICAL_SURFACE('',#275,4.1,45.);
#48=ADVANCED_FACE('',(#67,#68),#64,.F.);
#49=ADVANCED_FACE('',(#69,#70),#42,.F.);
#50=ADVANCED_FACE('',(#71,#72),#65,.F.);
#51=ADVANCED_FACE('',(#73,#74),#37,.T.);
#52=ADVANCED_FACE('',(#75,#76),#66,.F.);
#53=ADVANCED_FACE('',(#77,#78),#38,.T.);
#54=ADVANCED_FACE('',(#79,#80),#43,.T.);
#55=ADVANCED_FACE('',(#81,#82),#39,.T.);
#56=ADVANCED_FACE('',(#83,#84),#40,.F.);
#57=ADVANCED_FACE('',(#85,#86),#35,.F.);
#58=ADVANCED_FACE('',(#87,#88),#44,.T.);
#59=ADVANCED_FACE('',(#89,#90),#45,.T.);
#60=ADVANCED_FACE('',(#91,#92),#46,.T.);
#61=ADVANCED_FACE('',(#93,#94),#41,.F.);
#62=ADVANCED_FACE('',(#95,#96),#36,.T.);
#63=ADVANCED_FACE('',(#97,#98),#47,.F.);
#64=PLANE('',#246);
#65=PLANE('',#252);
#66=PLANE('',#258);
#67=FACE_BOUND('',#99,.T.);
#68=FACE_BOUND('',#100,.T.);
#69=FACE_BOUND('',#101,.T.);
#70=FACE_BOUND('',#102,.T.);
#71=FACE_BOUND('',#103,.T.);
#72=FACE_BOUND('',#104,.T.);
#73=FACE_BOUND('',#105,.T.);
#74=FACE_BOUND('',#106,.T.);
#75=FACE_BOUND('',#107,.T.);
#76=FACE_BOUND('',#108,.T.);
#77=FACE_BOUND('',#109,.T.);
#78=FACE_BOUND('',#110,.T.);
#79=FACE_BOUND('',#111,.T.);
#80=FACE_BOUND('',#112,.T.);
#81=FACE_BOUND('',#113,.T.);
#82=FACE_BOUND('',#114,.T.);
#83=FACE_BOUND('',#115,.T.);
#84=FACE_BOUND('',#116,.T.);
#85=FACE_BOUND('',#117,.T.);
#86=FACE_BOUND('',#118,.T.);
#87=FACE_BOUND('',#119,.T.);
#88=FACE_BOUND('',#120,.T.);
#89=FACE_BOUND('',#121,.T.);
#90=FACE_BOUND('',#122,.T.);
#91=FACE_BOUND('',#123,.T.);
#92=FACE_BOUND('',#124,.T.);
#93=FACE_BOUND('',#125,.T.);
#94=FACE_BOUND('',#126,.T.);
#95=FACE_BOUND('',#127,.T.);
#96=FACE_BOUND('',#128,.T.);
#97=FACE_BOUND('',#129,.T.);
#98=FACE_BOUND('',#130,.T.);
#99=EDGE_LOOP('',(#131));
#100=EDGE_LOOP('',(#132));
#101=EDGE_LOOP('',(#133));
#102=EDGE_LOOP('',(#134));
#103=EDGE_LOOP('',(#135));
#104=EDGE_LOOP('',(#136));
#105=EDGE_LOOP('',(#137));
#106=EDGE_LOOP('',(#138));
#107=EDGE_LOOP('',(#139));
#108=EDGE_LOOP('',(#140));
#109=EDGE_LOOP('',(#141));
#110=EDGE_LOOP('',(#142));
#111=EDGE_LOOP('',(#143));
#112=EDGE_LOOP('',(#144));
#113=EDGE_LOOP('',(#145));
#114=EDGE_LOOP('',(#146));
#115=EDGE_LOOP('',(#147));
#116=EDGE_LOOP('',(#148));
#117=EDGE_LOOP('',(#149));
#118=EDGE_LOOP('',(#150));
#119=EDGE_LOOP('',(#151));
#120=EDGE_LOOP('',(#152));
#121=EDGE_LOOP('',(#153));
#122=EDGE_LOOP('',(#154));
#123=EDGE_LOOP('',(#155));
#124=EDGE_LOOP('',(#156));
#125=EDGE_LOOP('',(#157));
#126=EDGE_LOOP('',(#158));
#127=EDGE_LOOP('',(#159));
#128=EDGE_LOOP('',(#160));
#129=EDGE_LOOP('',(#161));
#130=EDGE_LOOP('',(#162));
#131=ORIENTED_EDGE('',*,*,#179,.T.);
#132=ORIENTED_EDGE('',*,*,#180,.T.);
#133=ORIENTED_EDGE('',*,*,#181,.T.);
#134=ORIENTED_EDGE('',*,*,#182,.F.);
#135=ORIENTED_EDGE('',*,*,#183,.T.);
#136=ORIENTED_EDGE('',*,*,#184,.T.);
#137=ORIENTED_EDGE('',*,*,#185,.T.);
#138=ORIENTED_EDGE('',*,*,#186,.T.);
#139=ORIENTED_EDGE('',*,*,#187,.T.);
#140=ORIENTED_EDGE('',*,*,#188,.T.);
#141=ORIENTED_EDGE('',*,*,#189,.T.);
#142=ORIENTED_EDGE('',*,*,#190,.F.);
#143=ORIENTED_EDGE('',*,*,#191,.F.);
#144=ORIENTED_EDGE('',*,*,#190,.T.);
#145=ORIENTED_EDGE('',*,*,#192,.T.);
#146=ORIENTED_EDGE('',*,*,#191,.T.);
#147=ORIENTED_EDGE('',*,*,#193,.T.);
#148=ORIENTED_EDGE('',*,*,#181,.F.);
#149=ORIENTED_EDGE('',*,*,#188,.F.);
#150=ORIENTED_EDGE('',*,*,#189,.F.);
#151=ORIENTED_EDGE('',*,*,#186,.F.);
#152=ORIENTED_EDGE('',*,*,#187,.F.);
#153=ORIENTED_EDGE('',*,*,#192,.F.);
#154=ORIENTED_EDGE('',*,*,#184,.F.);
#155=ORIENTED_EDGE('',*,*,#180,.F.);
#156=ORIENTED_EDGE('',*,*,#185,.F.);
#157=ORIENTED_EDGE('',*,*,#194,.F.);
#158=ORIENTED_EDGE('',*,*,#182,.T.);
#159=ORIENTED_EDGE('',*,*,#194,.T.);
#160=ORIENTED_EDGE('',*,*,#179,.F.);
#161=ORIENTED_EDGE('',*,*,#183,.F.);
#162=ORIENTED_EDGE('',*,*,#193,.F.);
#163=VERTEX_POINT('',#356);
#164=VERTEX_POINT('',#358);
#165=VERTEX_POINT('',#361);
#166=VERTEX_POINT('',#363);
#167=VERTEX_POINT('',#366);
#168=VERTEX_POINT('',#368);
#169=VERTEX_POINT('',#371);
#170=VERTEX_POINT('',#373);
#171=VERTEX_POINT('',#376);
#172=VERTEX_POINT('',#378);
#173=VERTEX_POINT('',#381);
#174=VERTEX_POINT('',#383);
#175=VERTEX_POINT('',#386);
#176=VERTEX_POINT('',#389);
#177=VERTEX_POINT('',#392);
#178=VERTEX_POINT('',#399);
#179=EDGE_CURVE('',#163,#163,#195,.T.);
#180=EDGE_CURVE('',#164,#164,#196,.T.);
#181=EDGE_CURVE('',#165,#165,#197,.T.);
#182=EDGE_CURVE('',#166,#166,#198,.T.);
#183=EDGE_CURVE('',#167,#167,#199,.T.);
#184=EDGE_CURVE('',#168,#168,#200,.T.);
#185=EDGE_CURVE('',#169,#169,#201,.T.);
#186=EDGE_CURVE('',#170,#170,#202,.T.);
#187=EDGE_CURVE('',#171,#171,#203,.T.);
#188=EDGE_CURVE('',#172,#172,#204,.T.);
#189=EDGE_CURVE('',#173,#173,#205,.T.);
#190=EDGE_CURVE('',#174,#174,#206,.T.);
#191=EDGE_CURVE('',#175,#175,#207,.T.);
#192=EDGE_CURVE('',#176,#176,#208,.T.);
#193=EDGE_CURVE('',#177,#177,#209,.T.);
#194=EDGE_CURVE('',#178,#178,#210,.T.);
#195=CIRCLE('',#244,4.46875);
#196=CIRCLE('',#245,7.);
#197=CIRCLE('',#247,4.1);
#198=CIRCLE('',#248,3.96875);
#199=CIRCLE('',#250,4.6);
#200=CIRCLE('',#251,5.65358983848623);
#201=CIRCLE('',#253,8.);
#202=CIRCLE('',#254,8.);
#203=CIRCLE('',#256,7.);
#204=CIRCLE('',#257,6.25);
#205=CIRCLE('',#259,5.85);
#206=CIRCLE('',#260,5.85);
#207=CIRCLE('',#262,6.);
#208=CIRCLE('',#264,6.);
#209=CIRCLE('',#266,4.1);
#210=CIRCLE('',#272,3.96875);
#211=CURVE_STYLE('',#214,POSITIVE_LENGTH_MEASURE(0.18),#238);
#212=CURVE_STYLE('',#215,POSITIVE_LENGTH_MEASURE(0.18),#238);
#213=CURVE_STYLE('',#216,POSITIVE_LENGTH_MEASURE(0.18),#238);
#214=DRAUGHTING_PRE_DEFINED_CURVE_FONT('continuous');
#215=DRAUGHTING_PRE_DEFINED_CURVE_FONT('continuous');
#216=DRAUGHTING_PRE_DEFINED_CURVE_FONT('continuous');
#217=PRESENTATION_LAYER_ASSIGNMENT('1','Layer 1',(#349,#350,#351,#241,#242,
#243,#33));
#218=STYLED_ITEM('',(#225),#349);
#219=STYLED_ITEM('',(#226),#350);
#220=STYLED_ITEM('',(#227),#351);
#221=STYLED_ITEM('',(#228),#241);
#222=STYLED_ITEM('',(#229),#242);
#223=STYLED_ITEM('',(#230),#243);
#224=STYLED_ITEM('',(#231),#33);
#225=PRESENTATION_STYLE_ASSIGNMENT((#232));
#226=PRESENTATION_STYLE_ASSIGNMENT((#233));
#227=PRESENTATION_STYLE_ASSIGNMENT((#234));
#228=PRESENTATION_STYLE_ASSIGNMENT((#211));
#229=PRESENTATION_STYLE_ASSIGNMENT((#212));
#230=PRESENTATION_STYLE_ASSIGNMENT((#213));
#231=PRESENTATION_STYLE_ASSIGNMENT((#28));
#232=POINT_STYLE('',#235,POSITIVE_LENGTH_MEASURE(3.),#238);
#233=POINT_STYLE('',#236,POSITIVE_LENGTH_MEASURE(3.),#238);
#234=POINT_STYLE('',#237,POSITIVE_LENGTH_MEASURE(3.),#238);
#235=PRE_DEFINED_POINT_MARKER_SYMBOL('plus');
#236=PRE_DEFINED_POINT_MARKER_SYMBOL('plus');
#237=PRE_DEFINED_POINT_MARKER_SYMBOL('plus');
#238=COLOUR_RGB('Medium Maroon',0.6,0.4,0.4);
#239=COLOUR_RGB('Medium Gray',0.501960784313725,0.501960784313725,0.501960784313725);
#240=AXIS2_PLACEMENT_3D('',#348,#276,#277);
#241=AXIS2_PLACEMENT_3D('PCS',#352,#278,#279);
#242=AXIS2_PLACEMENT_3D('CSW',#353,#280,#281);
#243=AXIS2_PLACEMENT_3D('MCS',#354,#282,#283);
#244=AXIS2_PLACEMENT_3D('',#355,#284,#285);
#245=AXIS2_PLACEMENT_3D('',#357,#286,#287);
#246=AXIS2_PLACEMENT_3D('',#359,#288,#289);
#247=AXIS2_PLACEMENT_3D('',#360,#290,#291);
#248=AXIS2_PLACEMENT_3D('',#362,#292,#293);
#249=AXIS2_PLACEMENT_3D('',#364,#294,#295);
#250=AXIS2_PLACEMENT_3D('',#365,#296,#297);
#251=AXIS2_PLACEMENT_3D('',#367,#298,#299);
#252=AXIS2_PLACEMENT_3D('',#369,#300,#301);
#253=AXIS2_PLACEMENT_3D('',#370,#302,#303);
#254=AXIS2_PLACEMENT_3D('',#372,#304,#305);
#255=AXIS2_PLACEMENT_3D('',#374,#306,#307);
#256=AXIS2_PLACEMENT_3D('',#375,#308,#309);
#257=AXIS2_PLACEMENT_3D('',#377,#310,#311);
#258=AXIS2_PLACEMENT_3D('',#379,#312,#313);
#259=AXIS2_PLACEMENT_3D('',#380,#314,#315);
#260=AXIS2_PLACEMENT_3D('',#382,#316,#317);
#261=AXIS2_PLACEMENT_3D('',#384,#318,#319);
#262=AXIS2_PLACEMENT_3D('',#385,#320,#321);
#263=AXIS2_PLACEMENT_3D('',#387,#322,#323);
#264=AXIS2_PLACEMENT_3D('',#388,#324,#325);
#265=AXIS2_PLACEMENT_3D('',#390,#326,#327);
#266=AXIS2_PLACEMENT_3D('',#391,#328,#329);
#267=AXIS2_PLACEMENT_3D('',#393,#330,#331);
#268=AXIS2_PLACEMENT_3D('',#394,#332,#333);
#269=AXIS2_PLACEMENT_3D('',#395,#334,#335);
#270=AXIS2_PLACEMENT_3D('',#396,#336,#337);
#271=AXIS2_PLACEMENT_3D('',#397,#338,#339);
#272=AXIS2_PLACEMENT_3D('',#398,#340,#341);
#273=AXIS2_PLACEMENT_3D('',#400,#342,#343);
#274=AXIS2_PLACEMENT_3D('',#401,#344,#345);
#275=AXIS2_PLACEMENT_3D('',#402,#346,#347);
#276=DIRECTION('',(0.,0.,1.));
#277=DIRECTION('',(1.,0.,0.));
#278=DIRECTION('',(0.,0.,1.));
#279=DIRECTION('',(1.,0.,0.));
#280=DIRECTION('',(0.,0.,1.));
#281=DIRECTION('',(1.,0.,0.));
#282=DIRECTION('',(0.,0.,1.));
#283=DIRECTION('',(1.,0.,0.));
#284=DIRECTION('',(0.,0.,1.));
#285=DIRECTION('',(1.,0.,0.));
#286=DIRECTION('',(0.,0.,-1.));
#287=DIRECTION('',(1.,0.,0.));
#288=DIRECTION('',(0.,0.,1.));
#289=DIRECTION('',(-1.,0.,0.));
#290=DIRECTION('',(0.,0.,1.));
#291=DIRECTION('',(1.,0.,0.));
#292=DIRECTION('',(0.,0.,1.));
#293=DIRECTION('',(1.,0.,0.));
#294=DIRECTION('',(0.,0.,1.));
#295=DIRECTION('',(-1.,0.,-1.43205242578934E-16));
#296=DIRECTION('',(0.,0.,-1.));
#297=DIRECTION('',(-1.,0.,0.));
#298=DIRECTION('',(0.,0.,1.));
#299=DIRECTION('',(-1.,0.,0.));
#300=DIRECTION('',(0.,0.,-1.));
#301=DIRECTION('',(1.,0.,0.));
#302=DIRECTION('',(0.,0.,1.));
#303=DIRECTION('',(1.,0.,0.));
#304=DIRECTION('',(0.,0.,-1.));
#305=DIRECTION('',(-1.,0.,0.));
#306=DIRECTION('',(0.,0.,1.));
#307=DIRECTION('',(-1.,0.,0.));
#308=DIRECTION('',(0.,0.,1.));
#309=DIRECTION('',(-1.,0.,0.));
#310=DIRECTION('',(0.,0.,-1.));
#311=DIRECTION('',(-1.,0.,0.));
#312=DIRECTION('',(0.,0.,-1.));
#313=DIRECTION('',(1.,0.,0.));
#314=DIRECTION('',(0.,0.,1.));
#315=DIRECTION('',(-1.,0.,0.));
#316=DIRECTION('',(0.,0.,1.));
#317=DIRECTION('',(1.,0.,0.));
#318=DIRECTION('',(0.,0.,1.));
#319=DIRECTION('',(-1.,0.,0.));
#320=DIRECTION('',(0.,0.,1.));
#321=DIRECTION('',(1.,0.,0.));
#322=DIRECTION('',(0.,0.,1.));
#323=DIRECTION('',(-1.,0.,-4.0390411896975E-16));
#324=DIRECTION('',(0.,0.,-1.));
#325=DIRECTION('',(-1.,0.,0.));
#326=DIRECTION('',(0.,0.,1.));
#327=DIRECTION('',(-1.,0.,0.));
#328=DIRECTION('',(0.,0.,1.));
#329=DIRECTION('',(-1.,0.,0.));
#330=DIRECTION('',(0.,0.,1.));
#331=DIRECTION('',(-1.,0.,0.));
#332=DIRECTION('',(0.,0.,-1.));
#333=DIRECTION('',(1.,0.,0.));
#334=DIRECTION('',(0.,0.,-1.));
#335=DIRECTION('',(1.,0.,0.));
#336=DIRECTION('',(0.,0.,-1.));
#337=DIRECTION('',(1.,0.,5.95098454020068E-17));
#338=DIRECTION('',(0.,0.,1.));
#339=DIRECTION('',(-1.,0.,-2.58143374401311E-18));
#340=DIRECTION('',(0.,0.,1.));
#341=DIRECTION('',(1.,0.,0.));
#342=DIRECTION('',(0.,0.,-1.));
#343=DIRECTION('',(1.,0.,0.));
#344=DIRECTION('',(0.,0.,1.));
#345=DIRECTION('',(-1.,0.,0.));
#346=DIRECTION('',(0.,0.,1.));
#347=DIRECTION('',(-1.,0.,8.98372878705249E-17));
#348=CARTESIAN_POINT('',(0.,0.,0.));
#349=CARTESIAN_POINT('',(0.,0.,0.));
#350=CARTESIAN_POINT('',(0.,0.,-4.));
#351=CARTESIAN_POINT('',(0.,0.,0.));
#352=CARTESIAN_POINT('',(0.,0.,0.));
#353=CARTESIAN_POINT('',(0.,0.,-4.));
#354=CARTESIAN_POINT('',(0.,0.,0.));
#355=CARTESIAN_POINT('',(0.,0.,-4.));
#356=CARTESIAN_POINT('',(4.46875,0.,-4.));
#357=CARTESIAN_POINT('',(0.,0.,-4.));
#358=CARTESIAN_POINT('',(7.,0.,-4.));
#359=CARTESIAN_POINT('',(0.,0.,-4.));
#360=CARTESIAN_POINT('',(0.,0.,33.));
#361=CARTESIAN_POINT('',(4.1,0.,33.));
#362=CARTESIAN_POINT('',(0.,0.,32.7726683315066));
#363=CARTESIAN_POINT('',(3.96875,0.,32.7726683315066));
#364=CARTESIAN_POINT('',(0.,0.,33.));
#365=CARTESIAN_POINT('',(0.,0.,40.));
#366=CARTESIAN_POINT('',(-4.6,0.,40.));
#367=CARTESIAN_POINT('',(0.,0.,40.));
#368=CARTESIAN_POINT('',(-5.65358983848623,0.,40.));
#369=CARTESIAN_POINT('',(6.,0.,40.));
#370=CARTESIAN_POINT('',(0.,0.,-3.));
#371=CARTESIAN_POINT('',(8.,0.,-3.));
#372=CARTESIAN_POINT('',(0.,0.,-1.));
#373=CARTESIAN_POINT('',(-8.,0.,-1.));
#374=CARTESIAN_POINT('',(0.,0.,40.));
#375=CARTESIAN_POINT('',(0.,0.,0.));
#376=CARTESIAN_POINT('',(-7.,0.,0.));
#377=CARTESIAN_POINT('',(0.,0.,0.));
#378=CARTESIAN_POINT('',(-6.25,0.,0.));
#379=CARTESIAN_POINT('',(8.,0.,0.));
#380=CARTESIAN_POINT('',(0.,0.,0.399999999999998));
#381=CARTESIAN_POINT('',(-5.85,0.,0.399999999999998));
#382=CARTESIAN_POINT('',(0.,0.,1.56698729810778));
#383=CARTESIAN_POINT('',(5.85,0.,1.56698729810778));
#384=CARTESIAN_POINT('',(0.,0.,40.));
#385=CARTESIAN_POINT('',(0.,0.,2.12679491924311));
#386=CARTESIAN_POINT('',(6.,0.,2.12679491924311));
#387=CARTESIAN_POINT('',(0.,0.,1.56698729810778));
#388=CARTESIAN_POINT('',(0.,0.,39.4));
#389=CARTESIAN_POINT('',(-6.,0.,39.4));
#390=CARTESIAN_POINT('',(0.,0.,40.));
#391=CARTESIAN_POINT('',(0.,0.,39.5));
#392=CARTESIAN_POINT('',(-4.1,0.,39.5));
#393=CARTESIAN_POINT('',(0.,0.,60.));
#394=CARTESIAN_POINT('',(0.,0.,0.399999999999998));
#395=CARTESIAN_POINT('',(0.,0.,0.));
#396=CARTESIAN_POINT('',(0.,0.,40.));
#397=CARTESIAN_POINT('',(0.,0.,-3.));
#398=CARTESIAN_POINT('',(0.,0.,-3.5));
#399=CARTESIAN_POINT('',(3.96875,0.,-3.5));
#400=CARTESIAN_POINT('',(3.67381906146713E-15,0.,45.4772675074119));
#401=CARTESIAN_POINT('',(0.,0.,-3.5));
#402=CARTESIAN_POINT('',(0.,0.,39.5));
#403=MECHANICAL_DESIGN_GEOMETRIC_PRESENTATION_REPRESENTATION('',(#218,#219,
#220,#221,#222,#223,#224),#404);
#404=(
GEOMETRIC_REPRESENTATION_CONTEXT(3)
GLOBAL_UNCERTAINTY_ASSIGNED_CONTEXT((#405))
GLOBAL_UNIT_ASSIGNED_CONTEXT((#411,#407,#406))
REPRESENTATION_CONTEXT('1704269780024','TOP_LEVEL_ASSEMBLY_PART')
);
#405=UNCERTAINTY_MEASURE_WITH_UNIT(LENGTH_MEASURE(2.E-5),#411,
'DISTANCE_ACCURACY_VALUE','Maximum Tolerance applied to model');
#406=(
NAMED_UNIT(*)
SI_UNIT($,.STERADIAN.)
SOLID_ANGLE_UNIT()
);
#407=(
CONVERSION_BASED_UNIT('DEGREE',#409)
NAMED_UNIT(#408)
PLANE_ANGLE_UNIT()
);
#408=DIMENSIONAL_EXPONENTS(0.,0.,0.,0.,0.,0.,0.);
#409=PLANE_ANGLE_MEASURE_WITH_UNIT(PLANE_ANGLE_MEASURE(0.0174532925),#410);
#410=(
NAMED_UNIT(*)
PLANE_ANGLE_UNIT()
SI_UNIT($,.RADIAN.)
);
#411=(
LENGTH_UNIT()
NAMED_UNIT(*)
SI_UNIT(.MILLI.,.METRE.)
);
ENDSEC;
END-ISO-10303-21;
