ISO-10303-21;
HEADER;
/* Generated by software containing ST-Developer
 * from STEP Tools, Inc. (www.steptools.com) 
 */
/* OPTION: using custom schema-name function */

FILE_DESCRIPTION(
/* description */ (''),
/* implementation_level */ '2;1');

FILE_NAME(
/* name */ 'TOOL.STP',
/* time_stamp */ '2023-06-27T10:13:46+02:00',
/* author */ (''),
/* organization */ ('SMS'),
/* preprocessor_version */ 'ST-DEVELOPER v16.7',
/* originating_system */ 'SIEMENS PLM Software NX 12.0',
/* authorisation */ '');

FILE_SCHEMA (('AUTOMOTIVE_DESIGN { 1 0 10303 214 3 1 1 1 }'));
ENDSEC;

DATA;
#10=CONSTRUCTIVE_GEOMETRY_REPRESENTATION_RELATIONSHIP(
'supplemental geometry','',#26,#11);
#11=CONSTRUCTIVE_GEOMETRY_REPRESENTATION('supplemental geometry',(#189,
#190,#191),#325);
#12=GEOMETRICALLY_BOUNDED_WIREFRAME_SHAPE_REPRESENTATION('Tool-None',(#27),
#325);
#13=SHAPE_REPRESENTATION_RELATIONSHIP('None',
'relationship between Tool-None and Tool-None',#26,#15);
#14=SHAPE_REPRESENTATION_RELATIONSHIP('None',
'relationship between Tool-None and Tool-None',#26,#12);
#15=ADVANCED_BREP_SHAPE_REPRESENTATION('Tool-None',(#39,#40),#325);
#16=SHAPE_DEFINITION_REPRESENTATION(#17,#26);
#17=PRODUCT_DEFINITION_SHAPE('','',#18);
#18=PRODUCT_DEFINITION(' ','',#20,#19);
#19=PRODUCT_DEFINITION_CONTEXT('part definition',#25,'design');
#20=PRODUCT_DEFINITION_FORMATION_WITH_SPECIFIED_SOURCE(' ',' ',#22,
 .NOT_KNOWN.);
#21=PRODUCT_RELATED_PRODUCT_CATEGORY('part','',(#22));
#22=PRODUCT('Tool','Tool',' ',(#23));
#23=PRODUCT_CONTEXT(' ',#25,'mechanical');
#24=APPLICATION_PROTOCOL_DEFINITION('international standard',
'automotive_design',2010,#25);
#25=APPLICATION_CONTEXT(
'core data for automotive mechanical design processes');
#26=SHAPE_REPRESENTATION('Tool-None',(#188),#325);
#27=GEOMETRIC_CURVE_SET('None',(#258,#259,#260,#155));
#28=VERTEX_LOOP('',#137);
#29=SURFACE_STYLE_USAGE(.BOTH.,#31);
#30=SURFACE_STYLE_USAGE(.BOTH.,#32);
#31=SURFACE_SIDE_STYLE('',(#33));
#32=SURFACE_SIDE_STYLE('',(#34));
#33=SURFACE_STYLE_FILL_AREA(#35);
#34=SURFACE_STYLE_FILL_AREA(#36);
#35=FILL_AREA_STYLE('',(#37));
#36=FILL_AREA_STYLE('',(#38));
#37=FILL_AREA_STYLE_COLOUR('',#186);
#38=FILL_AREA_STYLE_COLOUR('',#187);
#39=MANIFOLD_SOLID_BREP('NOCUT',#41);
#40=MANIFOLD_SOLID_BREP('CUT',#42);
#41=CLOSED_SHELL('',(#52,#53,#54,#55,#56,#57,#58,#59));
#42=CLOSED_SHELL('',(#60,#61,#62));
#43=CYLINDRICAL_SURFACE('',#204,5.);
#44=PLANE('',#201);
#45=PLANE('',#205);
#46=PLANE('',#207);
#47=FACE_OUTER_BOUND('',#100,.T.);
#48=FACE_OUTER_BOUND('',#105,.T.);
#49=FACE_OUTER_BOUND('',#106,.T.);
#50=TOROIDAL_SURFACE('',#195,5.42107811174025,0.800000000000002);
#51=TOROIDAL_SURFACE('',#199,4.2,0.799999999999997);
#52=ADVANCED_FACE('',(#76,#77),#63,.T.);
#53=ADVANCED_FACE('',(#78,#79),#50,.F.);
#54=ADVANCED_FACE('',(#80,#81),#64,.T.);
#55=ADVANCED_FACE('',(#82,#83),#51,.T.);
#56=ADVANCED_FACE('',(#47),#44,.T.);
#57=ADVANCED_FACE('',(#84,#85),#65,.T.);
#58=ADVANCED_FACE('SHANK',(#86,#87),#43,.T.);
#59=ADVANCED_FACE('',(#48),#45,.T.);
#60=ADVANCED_FACE('',(#49),#46,.T.);
#61=ADVANCED_FACE('',(#88,#89),#66,.T.);
#62=ADVANCED_FACE('',(#90,#91),#67,.T.);
#63=CONICAL_SURFACE('',#193,4.6501875,0.0358098575329418);
#64=CONICAL_SURFACE('',#197,4.80733191294219,39.8984281974271);
#65=CONICAL_SURFACE('',#203,5.,44.9999999999999);
#66=CONICAL_SURFACE('',#209,4.6501875,0.0358098575329418);
#67=CONICAL_SURFACE('',#210,1.77635683940025E-15,69.9999999999999);
#68=CIRCLE('',#192,4.6291817320125);
#69=CIRCLE('',#194,4.80733191294219);
#70=CIRCLE('',#196,4.81374619879805);
#71=CIRCLE('',#198,5.);
#72=CIRCLE('',#200,3.66);
#73=CIRCLE('',#202,5.);
#74=CIRCLE('',#206,4.6291817320125);
#75=CIRCLE('',#208,4.65);
#76=FACE_BOUND('',#92,.T.);
#77=FACE_BOUND('',#93,.T.);
#78=FACE_BOUND('',#94,.T.);
#79=FACE_BOUND('',#95,.T.);
#80=FACE_BOUND('',#96,.T.);
#81=FACE_BOUND('',#97,.T.);
#82=FACE_BOUND('',#98,.T.);
#83=FACE_BOUND('',#99,.T.);
#84=FACE_BOUND('',#101,.T.);
#85=FACE_BOUND('',#102,.T.);
#86=FACE_BOUND('',#103,.T.);
#87=FACE_BOUND('',#104,.T.);
#88=FACE_BOUND('',#107,.T.);
#89=FACE_BOUND('',#108,.T.);
#90=FACE_BOUND('',#109,.T.);
#91=FACE_BOUND('',#28,.T.);
#92=EDGE_LOOP('',(#110));
#93=EDGE_LOOP('',(#111));
#94=EDGE_LOOP('',(#112));
#95=EDGE_LOOP('',(#113));
#96=EDGE_LOOP('',(#114));
#97=EDGE_LOOP('',(#115));
#98=EDGE_LOOP('',(#116));
#99=EDGE_LOOP('',(#117));
#100=EDGE_LOOP('',(#118));
#101=EDGE_LOOP('',(#119));
#102=EDGE_LOOP('',(#120));
#103=EDGE_LOOP('',(#121));
#104=EDGE_LOOP('',(#122));
#105=EDGE_LOOP('',(#123));
#106=EDGE_LOOP('',(#124));
#107=EDGE_LOOP('',(#125));
#108=EDGE_LOOP('',(#126));
#109=EDGE_LOOP('',(#127));
#110=ORIENTED_EDGE('',*,*,#138,.F.);
#111=ORIENTED_EDGE('',*,*,#139,.F.);
#112=ORIENTED_EDGE('',*,*,#140,.F.);
#113=ORIENTED_EDGE('',*,*,#138,.T.);
#114=ORIENTED_EDGE('',*,*,#141,.F.);
#115=ORIENTED_EDGE('',*,*,#140,.T.);
#116=ORIENTED_EDGE('',*,*,#142,.F.);
#117=ORIENTED_EDGE('',*,*,#141,.T.);
#118=ORIENTED_EDGE('',*,*,#143,.F.);
#119=ORIENTED_EDGE('',*,*,#143,.T.);
#120=ORIENTED_EDGE('',*,*,#144,.F.);
#121=ORIENTED_EDGE('',*,*,#144,.T.);
#122=ORIENTED_EDGE('',*,*,#142,.T.);
#123=ORIENTED_EDGE('',*,*,#139,.T.);
#124=ORIENTED_EDGE('',*,*,#145,.T.);
#125=ORIENTED_EDGE('',*,*,#146,.T.);
#126=ORIENTED_EDGE('',*,*,#145,.F.);
#127=ORIENTED_EDGE('',*,*,#146,.F.);
#128=VERTEX_POINT('',#295);
#129=VERTEX_POINT('',#297);
#130=VERTEX_POINT('',#300);
#131=VERTEX_POINT('',#303);
#132=VERTEX_POINT('',#306);
#133=VERTEX_POINT('',#309);
#134=VERTEX_POINT('',#312);
#135=VERTEX_POINT('',#317);
#136=VERTEX_POINT('',#320);
#137=VERTEX_POINT('',#322);
#138=EDGE_CURVE('',#128,#128,#156,.T.);
#139=EDGE_CURVE('',#129,#129,#68,.T.);
#140=EDGE_CURVE('',#130,#130,#69,.T.);
#141=EDGE_CURVE('',#131,#131,#70,.T.);
#142=EDGE_CURVE('',#132,#132,#71,.T.);
#143=EDGE_CURVE('',#133,#133,#72,.T.);
#144=EDGE_CURVE('',#134,#134,#73,.T.);
#145=EDGE_CURVE('',#135,#135,#74,.T.);
#146=EDGE_CURVE('',#136,#136,#75,.T.);
#147=CURVE_STYLE('',#151,POSITIVE_LENGTH_MEASURE(0.18),#158);
#148=CURVE_STYLE('',#152,POSITIVE_LENGTH_MEASURE(0.13),#185);
#149=CURVE_STYLE('',#153,POSITIVE_LENGTH_MEASURE(0.18),#184);
#150=CURVE_STYLE('',#154,POSITIVE_LENGTH_MEASURE(0.18),#184);
#151=DRAUGHTING_PRE_DEFINED_CURVE_FONT('continuous');
#152=DRAUGHTING_PRE_DEFINED_CURVE_FONT('continuous');
#153=DRAUGHTING_PRE_DEFINED_CURVE_FONT('continuous');
#154=DRAUGHTING_PRE_DEFINED_CURVE_FONT('continuous');
#155=B_SPLINE_CURVE_WITH_KNOTS('CUTTING PART LINE',3,(#261,#262,#263,#264,
#265,#266,#267,#268,#269,#270,#271,#272,#273),.UNSPECIFIED.,.T.,.F.,(4,
3,3,3,4),(0.,0.449379610217667,0.508815606856491,0.936465084697742,1.),
 .UNSPECIFIED.);
#156=B_SPLINE_CURVE_WITH_KNOTS('',3,(#277,#278,#279,#280,#281,#282,#283,
#284,#285,#286,#287,#288,#289,#290,#291,#292,#293,#294),.UNSPECIFIED.,.T.,
 .F.,(2,2,2,2,2,2,2,2,2,2,2),(-0.125,0.,0.125,0.25,0.375,0.5,0.625,0.75,
0.875,1.,1.125),.UNSPECIFIED.);
#157=DRAUGHTING_PRE_DEFINED_COLOUR('white');
#158=DRAUGHTING_PRE_DEFINED_COLOUR('blue');
#159=PRESENTATION_LAYER_ASSIGNMENT('1','Layer 1',(#258,#259,#260,#155,#189,
#190,#191,#39,#40));
#160=STYLED_ITEM('',(#169),#258);
#161=STYLED_ITEM('',(#170),#259);
#162=STYLED_ITEM('',(#171),#260);
#163=STYLED_ITEM('',(#172),#155);
#164=STYLED_ITEM('',(#173),#189);
#165=STYLED_ITEM('',(#174),#190);
#166=STYLED_ITEM('',(#175),#191);
#167=STYLED_ITEM('',(#176),#39);
#168=STYLED_ITEM('',(#177),#40);
#169=PRESENTATION_STYLE_ASSIGNMENT((#178));
#170=PRESENTATION_STYLE_ASSIGNMENT((#179));
#171=PRESENTATION_STYLE_ASSIGNMENT((#180));
#172=PRESENTATION_STYLE_ASSIGNMENT((#147));
#173=PRESENTATION_STYLE_ASSIGNMENT((#148));
#174=PRESENTATION_STYLE_ASSIGNMENT((#149));
#175=PRESENTATION_STYLE_ASSIGNMENT((#150));
#176=PRESENTATION_STYLE_ASSIGNMENT((#29));
#177=PRESENTATION_STYLE_ASSIGNMENT((#30));
#178=POINT_STYLE('',#181,POSITIVE_LENGTH_MEASURE(3.),#184);
#179=POINT_STYLE('',#182,POSITIVE_LENGTH_MEASURE(3.),#157);
#180=POINT_STYLE('',#183,POSITIVE_LENGTH_MEASURE(3.),#184);
#181=PRE_DEFINED_POINT_MARKER_SYMBOL('plus');
#182=PRE_DEFINED_POINT_MARKER_SYMBOL('plus');
#183=PRE_DEFINED_POINT_MARKER_SYMBOL('plus');
#184=COLOUR_RGB('Medium Maroon',0.6,0.4,0.4);
#185=COLOUR_RGB('Silver Gray',0.6,0.6,0.6);
#186=COLOUR_RGB('TLS_NOCUT',0.498023956664378,0.498023956664378,0.498023956664378);
#187=COLOUR_RGB('TLS_CUT',0.8,0.8,0.8);
#188=AXIS2_PLACEMENT_3D('',#257,#211,#212);
#189=AXIS2_PLACEMENT_3D('PCS',#274,#213,#214);
#190=AXIS2_PLACEMENT_3D('MCS',#275,#215,#216);
#191=AXIS2_PLACEMENT_3D('CIP',#276,#217,#218);
#192=AXIS2_PLACEMENT_3D('',#296,#219,#220);
#193=AXIS2_PLACEMENT_3D('',#298,#221,#222);
#194=AXIS2_PLACEMENT_3D('',#299,#223,#224);
#195=AXIS2_PLACEMENT_3D('',#301,#225,#226);
#196=AXIS2_PLACEMENT_3D('',#302,#227,#228);
#197=AXIS2_PLACEMENT_3D('',#304,#229,#230);
#198=AXIS2_PLACEMENT_3D('',#305,#231,#232);
#199=AXIS2_PLACEMENT_3D('',#307,#233,#234);
#200=AXIS2_PLACEMENT_3D('',#308,#235,#236);
#201=AXIS2_PLACEMENT_3D('',#310,#237,#238);
#202=AXIS2_PLACEMENT_3D('',#311,#239,#240);
#203=AXIS2_PLACEMENT_3D('',#313,#241,#242);
#204=AXIS2_PLACEMENT_3D('',#314,#243,#244);
#205=AXIS2_PLACEMENT_3D('',#315,#245,#246);
#206=AXIS2_PLACEMENT_3D('',#316,#247,#248);
#207=AXIS2_PLACEMENT_3D('',#318,#249,#250);
#208=AXIS2_PLACEMENT_3D('',#319,#251,#252);
#209=AXIS2_PLACEMENT_3D('',#321,#253,#254);
#210=AXIS2_PLACEMENT_3D('',#323,#255,#256);
#211=DIRECTION('',(0.,0.,1.));
#212=DIRECTION('',(1.,0.,0.));
#213=DIRECTION('',(0.,0.,1.));
#214=DIRECTION('',(1.,0.,0.));
#215=DIRECTION('',(0.,0.,1.));
#216=DIRECTION('',(1.,0.,0.));
#217=DIRECTION('',(0.,0.,1.));
#218=DIRECTION('',(1.,0.,0.));
#219=DIRECTION('',(0.,0.,-1.));
#220=DIRECTION('',(-1.,0.,0.));
#221=DIRECTION('',(0.,0.,-1.));
#222=DIRECTION('',(-1.,0.,1.05230669490433E-14));
#223=DIRECTION('',(0.,0.,1.));
#224=DIRECTION('',(1.,0.,0.));
#225=DIRECTION('',(0.,0.,1.));
#226=DIRECTION('',(1.,0.,0.));
#227=DIRECTION('',(0.,0.,1.));
#228=DIRECTION('',(1.,0.,0.));
#229=DIRECTION('',(0.,0.,1.));
#230=DIRECTION('',(1.,0.,-5.77628800926053E-17));
#231=DIRECTION('',(0.,0.,1.));
#232=DIRECTION('',(1.,0.,0.));
#233=DIRECTION('',(0.,0.,1.));
#234=DIRECTION('',(1.,0.,0.));
#235=DIRECTION('',(0.,0.,-1.));
#236=DIRECTION('',(-1.,0.,0.));
#237=DIRECTION('',(0.,0.,1.));
#238=DIRECTION('',(1.,0.,0.));
#239=DIRECTION('',(0.,0.,-1.));
#240=DIRECTION('',(-1.,0.,0.));
#241=DIRECTION('',(0.,0.,-1.));
#242=DIRECTION('',(-1.,0.,1.07017766677177E-16));
#243=DIRECTION('',(0.,0.,-1.));
#244=DIRECTION('',(-1.,0.,0.));
#245=DIRECTION('',(0.,0.,-1.));
#246=DIRECTION('',(-1.,0.,0.));
#247=DIRECTION('',(0.,0.,1.));
#248=DIRECTION('',(1.,0.,0.));
#249=DIRECTION('',(0.,0.,1.));
#250=DIRECTION('',(1.,0.,0.));
#251=DIRECTION('',(0.,0.,1.));
#252=DIRECTION('',(1.,0.,0.));
#253=DIRECTION('',(0.,0.,-1.));
#254=DIRECTION('',(-1.,0.,1.05230669490433E-14));
#255=DIRECTION('',(0.,0.,1.));
#256=DIRECTION('',(1.,0.,1.01022033590138E-17));
#257=CARTESIAN_POINT('',(0.,0.,0.));
#258=CARTESIAN_POINT('',(0.,0.,-40.));
#259=CARTESIAN_POINT('CRP',(-4.65,0.,-87.308));
#260=CARTESIAN_POINT('CIP_DCSYS',(0.,0.,-89.));
#261=CARTESIAN_POINT('',(0.,0.,-89.));
#262=CARTESIAN_POINT('',(0.,0.,-77.3333333333333));
#263=CARTESIAN_POINT('',(0.,0.,-65.6666666666666));
#264=CARTESIAN_POINT('',(0.,0.,-54.));
#265=CARTESIAN_POINT('',(-1.5430605773375,0.,-54.));
#266=CARTESIAN_POINT('',(-3.086121154675,0.,-54.));
#267=CARTESIAN_POINT('',(-4.6291817320125,0.,-53.9999999999999));
#268=CARTESIAN_POINT('',(-4.63612080259481,0.,-65.1025129317006));
#269=CARTESIAN_POINT('',(-4.64305987317713,0.,-76.2050258634014));
#270=CARTESIAN_POINT('',(-4.64999947187972,0.,-87.3075386028822));
#271=CARTESIAN_POINT('',(-3.1,0.,-87.8716922737748));
#272=CARTESIAN_POINT('',(-1.55,0.,-88.4358461368874));
#273=CARTESIAN_POINT('',(1.96924332082738E-15,0.,-89.));
#274=CARTESIAN_POINT('',(0.,0.,0.));
#275=CARTESIAN_POINT('',(0.,0.,-40.));
#276=CARTESIAN_POINT('',(0.,0.,-89.));
#277=CARTESIAN_POINT('',(-4.62179779851382,1.20998383418238,-41.0000314551762));
#278=CARTESIAN_POINT('',(-4.62179779851382,-1.20998383418237,-41.0000314551762));
#279=CARTESIAN_POINT('',(-4.12369233887863,-2.41251679032572,-41.0000314551762));
#280=CARTESIAN_POINT('',(-2.41251679032572,-4.12369233887863,-41.0000314551762));
#281=CARTESIAN_POINT('',(-1.20998383418237,-4.62179779851382,-41.0000314551762));
#282=CARTESIAN_POINT('',(1.20998383418237,-4.62179779851382,-41.0000314551762));
#283=CARTESIAN_POINT('',(2.41251679032572,-4.12369233887863,-41.0000314551762));
#284=CARTESIAN_POINT('',(4.12369233887863,-2.41251679032572,-41.0000314551762));
#285=CARTESIAN_POINT('',(4.62179779851382,-1.20998383418237,-41.0000314551762));
#286=CARTESIAN_POINT('',(4.62179779851382,1.20998383418237,-41.0000314551762));
#287=CARTESIAN_POINT('',(4.12369233887864,2.41251679032572,-41.0000314551762));
#288=CARTESIAN_POINT('',(2.41251679032573,4.12369233887863,-41.0000314551762));
#289=CARTESIAN_POINT('',(1.20998383418237,4.62179779851382,-41.0000314551762));
#290=CARTESIAN_POINT('',(-1.20998383418237,4.62179779851382,-41.0000314551762));
#291=CARTESIAN_POINT('',(-2.41251679032573,4.12369233887863,-41.0000314551762));
#292=CARTESIAN_POINT('',(-4.12369233887863,2.41251679032572,-41.0000314551762));
#293=CARTESIAN_POINT('',(-4.62179779851382,1.20998383418238,-41.0000314551762));
#294=CARTESIAN_POINT('',(-4.62179779851382,-1.20998383418237,-41.0000314551762));
#295=CARTESIAN_POINT('',(-4.62142726526316,8.49010482038435E-16,-41.0000157275881));
#296=CARTESIAN_POINT('',(0.,0.,-54.));
#297=CARTESIAN_POINT('',(-4.6291817320125,0.,-54.));
#298=CARTESIAN_POINT('',(0.,0.,-87.6092287800039));
#299=CARTESIAN_POINT('',(0.,0.,-40.5208146959543));
#300=CARTESIAN_POINT('',(4.80733191294219,0.,-40.5208146959543));
#301=CARTESIAN_POINT('',(0.,0.,-41.0339575644237));
#302=CARTESIAN_POINT('',(0.,0.,-40.5131428684693));
#303=CARTESIAN_POINT('',(4.81374619879805,0.,-40.5131428684693));
#304=CARTESIAN_POINT('',(0.,0.,-40.5208146959543));
#305=CARTESIAN_POINT('',(0.,0.,-40.));
#306=CARTESIAN_POINT('',(5.,0.,-40.));
#307=CARTESIAN_POINT('',(0.,0.,-40.));
#308=CARTESIAN_POINT('',(0.,0.,0.));
#309=CARTESIAN_POINT('',(-3.66,0.,0.));
#310=CARTESIAN_POINT('',(-3.66,0.,1.11022302462516E-16));
#311=CARTESIAN_POINT('',(0.,0.,-1.34));
#312=CARTESIAN_POINT('',(-5.,0.,-1.34));
#313=CARTESIAN_POINT('',(0.,0.,-1.34));
#314=CARTESIAN_POINT('',(0.,0.,20.9080749503476));
#315=CARTESIAN_POINT('',(0.,0.,-54.));
#316=CARTESIAN_POINT('',(0.,0.,-54.));
#317=CARTESIAN_POINT('',(4.6291817320125,0.,-54.));
#318=CARTESIAN_POINT('',(0.,0.,-54.));
#319=CARTESIAN_POINT('',(0.,-1.77635683940025E-15,-87.3075384106621));
#320=CARTESIAN_POINT('',(4.65,-1.77635683940025E-15,-87.3075384106621));
#321=CARTESIAN_POINT('',(0.,0.,-87.6092287800039));
#322=CARTESIAN_POINT('',(0.,0.,-89.));
#323=CARTESIAN_POINT('',(0.,-1.77635683940025E-15,-89.));
#324=MECHANICAL_DESIGN_GEOMETRIC_PRESENTATION_REPRESENTATION('',(#160,#161,
#162,#163,#164,#165,#166,#167,#168),#325);
#325=(
GEOMETRIC_REPRESENTATION_CONTEXT(3)
GLOBAL_UNCERTAINTY_ASSIGNED_CONTEXT((#326))
GLOBAL_UNIT_ASSIGNED_CONTEXT((#332,#328,#327))
REPRESENTATION_CONTEXT('TOOL','TOP_LEVEL_ASSEMBLY_PART')
);
#326=UNCERTAINTY_MEASURE_WITH_UNIT(LENGTH_MEASURE(0.0508),#332,
'DISTANCE_ACCURACY_VALUE','Maximum Tolerance applied to model');
#327=(
NAMED_UNIT(*)
SI_UNIT($,.STERADIAN.)
SOLID_ANGLE_UNIT()
);
#328=(
CONVERSION_BASED_UNIT('DEGREE',#330)
NAMED_UNIT(#329)
PLANE_ANGLE_UNIT()
);
#329=DIMENSIONAL_EXPONENTS(0.,0.,0.,0.,0.,0.,0.);
#330=PLANE_ANGLE_MEASURE_WITH_UNIT(PLANE_ANGLE_MEASURE(0.0174532925),#331);
#331=(
NAMED_UNIT(*)
PLANE_ANGLE_UNIT()
SI_UNIT($,.RADIAN.)
);
#332=(
LENGTH_UNIT()
NAMED_UNIT(*)
SI_UNIT(.MILLI.,.METRE.)
);
ENDSEC;
END-ISO-10303-21;
