ISO-10303-21;
HEADER;
/* Generated by software containing ST-Developer
 * from STEP Tools, Inc. (www.steptools.com) 
 */
/* OPTION: using custom schema-name function */

FILE_DESCRIPTION(
/* description */ (''),
/* implementation_level */ '2;1');

FILE_NAME(
/* name */ 'TOOL.STP',
/* time_stamp */ '2023-06-27T09:32:07+02:00',
/* author */ (''),
/* organization */ ('SMS'),
/* preprocessor_version */ 'ST-DEVELOPER v16.7',
/* originating_system */ 'SIEMENS PLM Software NX 12.0',
/* authorisation */ '');

FILE_SCHEMA (('AUTOMOTIVE_DESIGN { 1 0 10303 214 3 1 1 1 }'));
ENDSEC;

DATA;
#10=CONSTRUCTIVE_GEOMETRY_REPRESENTATION_RELATIONSHIP(
'supplemental geometry','',#26,#11);
#11=CONSTRUCTIVE_GEOMETRY_REPRESENTATION('supplemental geometry',(#189,
#190,#191),#311);
#12=GEOMETRICALLY_BOUNDED_WIREFRAME_SHAPE_REPRESENTATION('Tool-None',(#27),
#311);
#13=SHAPE_REPRESENTATION_RELATIONSHIP('None',
'relationship between Tool-None and Tool-None',#26,#15);
#14=SHAPE_REPRESENTATION_RELATIONSHIP('None',
'relationship between Tool-None and Tool-None',#26,#12);
#15=ADVANCED_BREP_SHAPE_REPRESENTATION('Tool-None',(#39,#40),#311);
#16=SHAPE_DEFINITION_REPRESENTATION(#17,#26);
#17=PRODUCT_DEFINITION_SHAPE('','',#18);
#18=PRODUCT_DEFINITION(' ','',#20,#19);
#19=PRODUCT_DEFINITION_CONTEXT('part definition',#25,'design');
#20=PRODUCT_DEFINITION_FORMATION_WITH_SPECIFIED_SOURCE(' ',' ',#22,
 .NOT_KNOWN.);
#21=PRODUCT_RELATED_PRODUCT_CATEGORY('part','',(#22));
#22=PRODUCT('Tool','Tool',' ',(#23));
#23=PRODUCT_CONTEXT(' ',#25,'mechanical');
#24=APPLICATION_PROTOCOL_DEFINITION('international standard',
'automotive_design',2010,#25);
#25=APPLICATION_CONTEXT(
'core data for automotive mechanical design processes');
#26=SHAPE_REPRESENTATION('Tool-None',(#188),#311);
#27=GEOMETRIC_CURVE_SET('None',(#261,#262,#263,#156));
#28=VERTEX_LOOP('',#129);
#29=SURFACE_STYLE_USAGE(.BOTH.,#31);
#30=SURFACE_STYLE_USAGE(.BOTH.,#32);
#31=SURFACE_SIDE_STYLE('',(#33));
#32=SURFACE_SIDE_STYLE('',(#34));
#33=SURFACE_STYLE_FILL_AREA(#35);
#34=SURFACE_STYLE_FILL_AREA(#36);
#35=FILL_AREA_STYLE('',(#37));
#36=FILL_AREA_STYLE('',(#38));
#37=FILL_AREA_STYLE_COLOUR('',#186);
#38=FILL_AREA_STYLE_COLOUR('',#187);
#39=MANIFOLD_SOLID_BREP('NOCUT',#41);
#40=MANIFOLD_SOLID_BREP('CUT',#42);
#41=CLOSED_SHELL('',(#52,#53,#54,#55,#56,#57,#58,#59));
#42=CLOSED_SHELL('',(#60,#61,#62));
#43=CYLINDRICAL_SURFACE('',#205,4.);
#44=PLANE('',#202);
#45=PLANE('',#206);
#46=PLANE('',#208);
#47=FACE_OUTER_BOUND('',#92,.T.);
#48=FACE_OUTER_BOUND('',#97,.T.);
#49=FACE_OUTER_BOUND('',#98,.T.);
#50=TOROIDAL_SURFACE('',#196,4.14969665922586,0.799999999999999);
#51=TOROIDAL_SURFACE('',#200,3.2,0.799999999999998);
#52=ADVANCED_FACE('',(#68,#69),#63,.T.);
#53=ADVANCED_FACE('',(#70,#71),#50,.F.);
#54=ADVANCED_FACE('',(#72,#73),#64,.T.);
#55=ADVANCED_FACE('',(#74,#75),#51,.T.);
#56=ADVANCED_FACE('',(#47),#44,.T.);
#57=ADVANCED_FACE('',(#76,#77),#65,.T.);
#58=ADVANCED_FACE('SHANK',(#78,#79),#43,.T.);
#59=ADVANCED_FACE('',(#48),#45,.T.);
#60=ADVANCED_FACE('',(#49),#46,.T.);
#61=ADVANCED_FACE('',(#80,#81),#66,.T.);
#62=ADVANCED_FACE('',(#82,#83),#67,.T.);
#63=CONICAL_SURFACE('',#194,3.37518750005578,0.0358098575284862);
#64=CONICAL_SURFACE('',#198,3.67084296631021,53.2326563200612);
#65=CONICAL_SURFACE('',#204,4.,45.);
#66=CONICAL_SURFACE('',#210,3.37518750005578,0.0358098575284862);
#67=CONICAL_SURFACE('',#211,1.77635683940025E-15,70.);
#68=FACE_BOUND('',#84,.T.);
#69=FACE_BOUND('',#85,.T.);
#70=FACE_BOUND('',#86,.T.);
#71=FACE_BOUND('',#87,.T.);
#72=FACE_BOUND('',#88,.T.);
#73=FACE_BOUND('',#89,.T.);
#74=FACE_BOUND('',#90,.T.);
#75=FACE_BOUND('',#91,.T.);
#76=FACE_BOUND('',#93,.T.);
#77=FACE_BOUND('',#94,.T.);
#78=FACE_BOUND('',#95,.T.);
#79=FACE_BOUND('',#96,.T.);
#80=FACE_BOUND('',#99,.T.);
#81=FACE_BOUND('',#100,.T.);
#82=FACE_BOUND('',#101,.T.);
#83=FACE_BOUND('',#28,.T.);
#84=EDGE_LOOP('',(#102));
#85=EDGE_LOOP('',(#103));
#86=EDGE_LOOP('',(#104));
#87=EDGE_LOOP('',(#105));
#88=EDGE_LOOP('',(#106));
#89=EDGE_LOOP('',(#107));
#90=EDGE_LOOP('',(#108));
#91=EDGE_LOOP('',(#109));
#92=EDGE_LOOP('',(#110));
#93=EDGE_LOOP('',(#111));
#94=EDGE_LOOP('',(#112));
#95=EDGE_LOOP('',(#113));
#96=EDGE_LOOP('',(#114));
#97=EDGE_LOOP('',(#115));
#98=EDGE_LOOP('',(#116));
#99=EDGE_LOOP('',(#117));
#100=EDGE_LOOP('',(#118));
#101=EDGE_LOOP('',(#119));
#102=ORIENTED_EDGE('',*,*,#130,.F.);
#103=ORIENTED_EDGE('',*,*,#131,.F.);
#104=ORIENTED_EDGE('',*,*,#132,.F.);
#105=ORIENTED_EDGE('',*,*,#130,.T.);
#106=ORIENTED_EDGE('',*,*,#133,.F.);
#107=ORIENTED_EDGE('',*,*,#132,.T.);
#108=ORIENTED_EDGE('',*,*,#134,.F.);
#109=ORIENTED_EDGE('',*,*,#133,.T.);
#110=ORIENTED_EDGE('',*,*,#135,.F.);
#111=ORIENTED_EDGE('',*,*,#135,.T.);
#112=ORIENTED_EDGE('',*,*,#136,.F.);
#113=ORIENTED_EDGE('',*,*,#136,.T.);
#114=ORIENTED_EDGE('',*,*,#134,.T.);
#115=ORIENTED_EDGE('',*,*,#131,.T.);
#116=ORIENTED_EDGE('',*,*,#137,.T.);
#117=ORIENTED_EDGE('',*,*,#138,.T.);
#118=ORIENTED_EDGE('',*,*,#137,.F.);
#119=ORIENTED_EDGE('',*,*,#138,.F.);
#120=VERTEX_POINT('',#281);
#121=VERTEX_POINT('',#283);
#122=VERTEX_POINT('',#286);
#123=VERTEX_POINT('',#289);
#124=VERTEX_POINT('',#292);
#125=VERTEX_POINT('',#295);
#126=VERTEX_POINT('',#298);
#127=VERTEX_POINT('',#303);
#128=VERTEX_POINT('',#306);
#129=VERTEX_POINT('',#308);
#130=EDGE_CURVE('',#120,#120,#139,.T.);
#131=EDGE_CURVE('',#121,#121,#140,.T.);
#132=EDGE_CURVE('',#122,#122,#141,.T.);
#133=EDGE_CURVE('',#123,#123,#142,.T.);
#134=EDGE_CURVE('',#124,#124,#143,.T.);
#135=EDGE_CURVE('',#125,#125,#144,.T.);
#136=EDGE_CURVE('',#126,#126,#145,.T.);
#137=EDGE_CURVE('',#127,#127,#146,.T.);
#138=EDGE_CURVE('',#128,#128,#147,.T.);
#139=CIRCLE('',#192,3.34969681547582);
#140=CIRCLE('',#193,3.36076668926946);
#141=CIRCLE('',#195,3.67084296631021);
#142=CIRCLE('',#197,3.67885369291565);
#143=CIRCLE('',#199,4.);
#144=CIRCLE('',#201,2.76);
#145=CIRCLE('',#203,4.);
#146=CIRCLE('',#207,3.36076668926946);
#147=CIRCLE('',#209,3.375);
#148=CURVE_STYLE('',#152,POSITIVE_LENGTH_MEASURE(0.18),#158);
#149=CURVE_STYLE('',#153,POSITIVE_LENGTH_MEASURE(0.13),#185);
#150=CURVE_STYLE('',#154,POSITIVE_LENGTH_MEASURE(0.18),#184);
#151=CURVE_STYLE('',#155,POSITIVE_LENGTH_MEASURE(0.18),#184);
#152=DRAUGHTING_PRE_DEFINED_CURVE_FONT('continuous');
#153=DRAUGHTING_PRE_DEFINED_CURVE_FONT('continuous');
#154=DRAUGHTING_PRE_DEFINED_CURVE_FONT('continuous');
#155=DRAUGHTING_PRE_DEFINED_CURVE_FONT('continuous');
#156=B_SPLINE_CURVE_WITH_KNOTS('CUTTING PART LINE',3,(#264,#265,#266,#267,
#268,#269,#270,#271,#272,#273,#274,#275,#276),.UNSPECIFIED.,.T.,.F.,(4,
3,3,3,4),(0.,0.446727952579199,0.509284136836238,0.933147162229429,1.),
 .UNSPECIFIED.);
#157=DRAUGHTING_PRE_DEFINED_COLOUR('white');
#158=DRAUGHTING_PRE_DEFINED_COLOUR('blue');
#159=PRESENTATION_LAYER_ASSIGNMENT('1','Layer 1',(#261,#262,#263,#156,#189,
#190,#191,#39,#40));
#160=STYLED_ITEM('',(#169),#261);
#161=STYLED_ITEM('',(#170),#262);
#162=STYLED_ITEM('',(#171),#263);
#163=STYLED_ITEM('',(#172),#156);
#164=STYLED_ITEM('',(#173),#189);
#165=STYLED_ITEM('',(#174),#190);
#166=STYLED_ITEM('',(#175),#191);
#167=STYLED_ITEM('',(#176),#39);
#168=STYLED_ITEM('',(#177),#40);
#169=PRESENTATION_STYLE_ASSIGNMENT((#178));
#170=PRESENTATION_STYLE_ASSIGNMENT((#179));
#171=PRESENTATION_STYLE_ASSIGNMENT((#180));
#172=PRESENTATION_STYLE_ASSIGNMENT((#148));
#173=PRESENTATION_STYLE_ASSIGNMENT((#149));
#174=PRESENTATION_STYLE_ASSIGNMENT((#150));
#175=PRESENTATION_STYLE_ASSIGNMENT((#151));
#176=PRESENTATION_STYLE_ASSIGNMENT((#29));
#177=PRESENTATION_STYLE_ASSIGNMENT((#30));
#178=POINT_STYLE('',#181,POSITIVE_LENGTH_MEASURE(3.),#184);
#179=POINT_STYLE('',#182,POSITIVE_LENGTH_MEASURE(3.),#157);
#180=POINT_STYLE('',#183,POSITIVE_LENGTH_MEASURE(3.),#184);
#181=PRE_DEFINED_POINT_MARKER_SYMBOL('plus');
#182=PRE_DEFINED_POINT_MARKER_SYMBOL('plus');
#183=PRE_DEFINED_POINT_MARKER_SYMBOL('plus');
#184=COLOUR_RGB('Medium Maroon',0.6,0.4,0.4);
#185=COLOUR_RGB('Silver Gray',0.6,0.6,0.6);
#186=COLOUR_RGB('TLS_NOCUT',0.498023956664378,0.498023956664378,0.498023956664378);
#187=COLOUR_RGB('TLS_CUT',0.8,0.8,0.8);
#188=AXIS2_PLACEMENT_3D('',#260,#212,#213);
#189=AXIS2_PLACEMENT_3D('PCS',#277,#214,#215);
#190=AXIS2_PLACEMENT_3D('MCS',#278,#216,#217);
#191=AXIS2_PLACEMENT_3D('CIP',#279,#218,#219);
#192=AXIS2_PLACEMENT_3D('',#280,#220,#221);
#193=AXIS2_PLACEMENT_3D('',#282,#222,#223);
#194=AXIS2_PLACEMENT_3D('',#284,#224,#225);
#195=AXIS2_PLACEMENT_3D('',#285,#226,#227);
#196=AXIS2_PLACEMENT_3D('',#287,#228,#229);
#197=AXIS2_PLACEMENT_3D('',#288,#230,#231);
#198=AXIS2_PLACEMENT_3D('',#290,#232,#233);
#199=AXIS2_PLACEMENT_3D('',#291,#234,#235);
#200=AXIS2_PLACEMENT_3D('',#293,#236,#237);
#201=AXIS2_PLACEMENT_3D('',#294,#238,#239);
#202=AXIS2_PLACEMENT_3D('',#296,#240,#241);
#203=AXIS2_PLACEMENT_3D('',#297,#242,#243);
#204=AXIS2_PLACEMENT_3D('',#299,#244,#245);
#205=AXIS2_PLACEMENT_3D('',#300,#246,#247);
#206=AXIS2_PLACEMENT_3D('',#301,#248,#249);
#207=AXIS2_PLACEMENT_3D('',#302,#250,#251);
#208=AXIS2_PLACEMENT_3D('',#304,#252,#253);
#209=AXIS2_PLACEMENT_3D('',#305,#254,#255);
#210=AXIS2_PLACEMENT_3D('',#307,#256,#257);
#211=AXIS2_PLACEMENT_3D('',#309,#258,#259);
#212=DIRECTION('',(0.,0.,1.));
#213=DIRECTION('',(1.,0.,0.));
#214=DIRECTION('',(0.,0.,1.));
#215=DIRECTION('',(1.,0.,0.));
#216=DIRECTION('',(0.,0.,1.));
#217=DIRECTION('',(1.,0.,0.));
#218=DIRECTION('',(0.,0.,1.));
#219=DIRECTION('',(1.,0.,0.));
#220=DIRECTION('',(0.,0.,1.));
#221=DIRECTION('',(1.,0.,0.));
#222=DIRECTION('',(0.,0.,-1.));
#223=DIRECTION('',(-1.,0.,0.));
#224=DIRECTION('',(0.,0.,-1.));
#225=DIRECTION('',(-1.,0.,3.46928432926964E-15));
#226=DIRECTION('',(0.,0.,1.));
#227=DIRECTION('',(1.,0.,0.));
#228=DIRECTION('',(0.,0.,1.));
#229=DIRECTION('',(1.,0.,0.));
#230=DIRECTION('',(0.,0.,1.));
#231=DIRECTION('',(1.,0.,0.));
#232=DIRECTION('',(0.,0.,1.));
#233=DIRECTION('',(1.,0.,-3.10236473198407E-17));
#234=DIRECTION('',(0.,0.,1.));
#235=DIRECTION('',(1.,0.,0.));
#236=DIRECTION('',(0.,0.,1.));
#237=DIRECTION('',(1.,0.,0.));
#238=DIRECTION('',(0.,0.,-1.));
#239=DIRECTION('',(-1.,0.,0.));
#240=DIRECTION('',(0.,0.,1.));
#241=DIRECTION('',(1.,0.,0.));
#242=DIRECTION('',(0.,0.,-1.));
#243=DIRECTION('',(-1.,0.,0.));
#244=DIRECTION('',(0.,0.,-1.));
#245=DIRECTION('',(-1.,0.,9.33018602617009E-17));
#246=DIRECTION('',(0.,0.,-1.));
#247=DIRECTION('',(-1.,0.,0.));
#248=DIRECTION('',(0.,0.,-1.));
#249=DIRECTION('',(-1.,0.,0.));
#250=DIRECTION('',(0.,0.,1.));
#251=DIRECTION('',(1.,0.,0.));
#252=DIRECTION('',(0.,0.,1.));
#253=DIRECTION('',(1.,0.,0.));
#254=DIRECTION('',(0.,0.,1.));
#255=DIRECTION('',(1.,0.,0.));
#256=DIRECTION('',(0.,0.,-1.));
#257=DIRECTION('',(-1.,0.,3.46928432926964E-15));
#258=DIRECTION('',(0.,0.,1.));
#259=DIRECTION('',(1.,0.,1.51533050385206E-17));
#260=CARTESIAN_POINT('',(0.,0.,0.));
#261=CARTESIAN_POINT('',(0.,0.,-36.));
#262=CARTESIAN_POINT('CRP',(-3.375,0.,-77.772));
#263=CARTESIAN_POINT('CIP_DCSYS',(0.,0.,-79.));
#264=CARTESIAN_POINT('',(0.,0.,-79.));
#265=CARTESIAN_POINT('',(0.,0.,-71.));
#266=CARTESIAN_POINT('',(0.,0.,-63.));
#267=CARTESIAN_POINT('',(0.,0.,-55.));
#268=CARTESIAN_POINT('',(-1.12025556308982,0.,-55.));
#269=CARTESIAN_POINT('',(-2.24051112617964,0.,-55.));
#270=CARTESIAN_POINT('',(-3.36076668926946,0.,-54.9999999999995));
#271=CARTESIAN_POINT('',(-3.36551077277829,0.,-62.5905336150774));
#272=CARTESIAN_POINT('',(-3.37025485628713,0.,-70.1810672301559));
#273=CARTESIAN_POINT('',(-3.37499946989798,0.,-77.7716006522929));
#274=CARTESIAN_POINT('',(-2.25,0.,-78.181066972901));
#275=CARTESIAN_POINT('',(-1.12500000000001,0.,-78.5905334864505));
#276=CARTESIAN_POINT('',(-6.42947834718841E-15,0.,-79.));
#277=CARTESIAN_POINT('',(0.,0.,0.));
#278=CARTESIAN_POINT('',(0.,0.,-36.));
#279=CARTESIAN_POINT('',(0.,0.,-79.));
#280=CARTESIAN_POINT('',(0.,0.,-37.2882019279336));
#281=CARTESIAN_POINT('',(3.34969681547582,0.,-37.2882019279336));
#282=CARTESIAN_POINT('',(0.,0.,-55.));
#283=CARTESIAN_POINT('',(-3.36076668926946,0.,-55.));
#284=CARTESIAN_POINT('',(0.,0.,-78.0732972609868));
#285=CARTESIAN_POINT('',(0.,0.,-36.6468437995963));
#286=CARTESIAN_POINT('',(3.67084296631021,0.,-36.6468437995963));
#287=CARTESIAN_POINT('',(0.,0.,-37.2877019280312));
#288=CARTESIAN_POINT('',(0.,0.,-36.6408581284349));
#289=CARTESIAN_POINT('',(3.67885369291565,0.,-36.6408581284349));
#290=CARTESIAN_POINT('',(0.,0.,-36.6468437995963));
#291=CARTESIAN_POINT('',(0.,0.,-36.));
#292=CARTESIAN_POINT('',(4.,0.,-36.));
#293=CARTESIAN_POINT('',(0.,0.,-36.));
#294=CARTESIAN_POINT('',(0.,0.,0.));
#295=CARTESIAN_POINT('',(-2.76,0.,0.));
#296=CARTESIAN_POINT('',(-2.76,0.,1.11022302462516E-16));
#297=CARTESIAN_POINT('',(0.,0.,-1.24));
#298=CARTESIAN_POINT('',(-4.,0.,-1.24));
#299=CARTESIAN_POINT('',(0.,0.,-1.24));
#300=CARTESIAN_POINT('',(0.,0.,20.9080749503476));
#301=CARTESIAN_POINT('',(0.,0.,-55.));
#302=CARTESIAN_POINT('',(0.,0.,-55.));
#303=CARTESIAN_POINT('',(3.36076668926946,0.,-55.));
#304=CARTESIAN_POINT('',(0.,0.,-55.));
#305=CARTESIAN_POINT('',(0.,-1.77635683940025E-15,-77.7716004593516));
#306=CARTESIAN_POINT('',(3.375,-1.77635683940025E-15,-77.7716004593516));
#307=CARTESIAN_POINT('',(0.,0.,-78.0732972609868));
#308=CARTESIAN_POINT('',(0.,0.,-79.));
#309=CARTESIAN_POINT('',(0.,-1.77635683940025E-15,-79.));
#310=MECHANICAL_DESIGN_GEOMETRIC_PRESENTATION_REPRESENTATION('',(#160,#161,
#162,#163,#164,#165,#166,#167,#168),#311);
#311=(
GEOMETRIC_REPRESENTATION_CONTEXT(3)
GLOBAL_UNCERTAINTY_ASSIGNED_CONTEXT((#312))
GLOBAL_UNIT_ASSIGNED_CONTEXT((#318,#314,#313))
REPRESENTATION_CONTEXT('TOOL','TOP_LEVEL_ASSEMBLY_PART')
);
#312=UNCERTAINTY_MEASURE_WITH_UNIT(LENGTH_MEASURE(2.E-5),#318,
'DISTANCE_ACCURACY_VALUE','Maximum Tolerance applied to model');
#313=(
NAMED_UNIT(*)
SI_UNIT($,.STERADIAN.)
SOLID_ANGLE_UNIT()
);
#314=(
CONVERSION_BASED_UNIT('DEGREE',#316)
NAMED_UNIT(#315)
PLANE_ANGLE_UNIT()
);
#315=DIMENSIONAL_EXPONENTS(0.,0.,0.,0.,0.,0.,0.);
#316=PLANE_ANGLE_MEASURE_WITH_UNIT(PLANE_ANGLE_MEASURE(0.0174532925),#317);
#317=(
NAMED_UNIT(*)
PLANE_ANGLE_UNIT()
SI_UNIT($,.RADIAN.)
);
#318=(
LENGTH_UNIT()
NAMED_UNIT(*)
SI_UNIT(.MILLI.,.METRE.)
);
ENDSEC;
END-ISO-10303-21;
