ISO-10303-21;
HEADER;
/* Generated by software containing ST-Developer
 * from STEP Tools, Inc. (www.steptools.com) 
 */
/* OPTION: using custom schema-name function */

FILE_DESCRIPTION(
/* description */ (''),
/* implementation_level */ '2;1');

FILE_NAME(
/* name */ 'TOOL.STP',
/* time_stamp */ '2023-06-27T09:22:30+02:00',
/* author */ (''),
/* organization */ ('SMS'),
/* preprocessor_version */ 'ST-DEVELOPER v16.7',
/* originating_system */ 'SIEMENS PLM Software NX 12.0',
/* authorisation */ '');

FILE_SCHEMA (('AUTOMOTIVE_DESIGN { 1 0 10303 214 3 1 1 1 }'));
ENDSEC;

DATA;
#10=CONSTRUCTIVE_GEOMETRY_REPRESENTATION_RELATIONSHIP(
'supplemental geometry','',#26,#11);
#11=CONSTRUCTIVE_GEOMETRY_REPRESENTATION('supplemental geometry',(#200,
#201,#202),#331);
#12=GEOMETRICALLY_BOUNDED_WIREFRAME_SHAPE_REPRESENTATION('Tool-None',(#27),
#331);
#13=SHAPE_REPRESENTATION_RELATIONSHIP('None',
'relationship between Tool-None and Tool-None',#26,#15);
#14=SHAPE_REPRESENTATION_RELATIONSHIP('None',
'relationship between Tool-None and Tool-None',#26,#12);
#15=ADVANCED_BREP_SHAPE_REPRESENTATION('Tool-None',(#39,#40),#331);
#16=SHAPE_DEFINITION_REPRESENTATION(#17,#26);
#17=PRODUCT_DEFINITION_SHAPE('','',#18);
#18=PRODUCT_DEFINITION(' ','',#20,#19);
#19=PRODUCT_DEFINITION_CONTEXT('part definition',#25,'design');
#20=PRODUCT_DEFINITION_FORMATION_WITH_SPECIFIED_SOURCE(' ',' ',#22,
 .NOT_KNOWN.);
#21=PRODUCT_RELATED_PRODUCT_CATEGORY('part','',(#22));
#22=PRODUCT('Tool','Tool',' ',(#23));
#23=PRODUCT_CONTEXT(' ',#25,'mechanical');
#24=APPLICATION_PROTOCOL_DEFINITION('international standard',
'automotive_design',2010,#25);
#25=APPLICATION_CONTEXT(
'core data for automotive mechanical design processes');
#26=SHAPE_REPRESENTATION('Tool-None',(#199),#331);
#27=GEOMETRIC_CURVE_SET('None',(#278,#279,#280,#167));
#28=VERTEX_LOOP('',#138);
#29=SURFACE_STYLE_USAGE(.BOTH.,#31);
#30=SURFACE_STYLE_USAGE(.BOTH.,#32);
#31=SURFACE_SIDE_STYLE('',(#33));
#32=SURFACE_SIDE_STYLE('',(#34));
#33=SURFACE_STYLE_FILL_AREA(#35);
#34=SURFACE_STYLE_FILL_AREA(#36);
#35=FILL_AREA_STYLE('',(#37));
#36=FILL_AREA_STYLE('',(#38));
#37=FILL_AREA_STYLE_COLOUR('',#197);
#38=FILL_AREA_STYLE_COLOUR('',#198);
#39=MANIFOLD_SOLID_BREP('NOCUT',#41);
#40=MANIFOLD_SOLID_BREP('CUT',#42);
#41=CLOSED_SHELL('',(#52,#53,#54,#55,#56,#57,#58,#59,#60));
#42=CLOSED_SHELL('',(#61,#62,#63));
#43=CYLINDRICAL_SURFACE('',#218,3.);
#44=PLANE('',#215);
#45=PLANE('',#219);
#46=PLANE('',#221);
#47=FACE_OUTER_BOUND('',#98,.T.);
#48=FACE_OUTER_BOUND('',#103,.T.);
#49=FACE_OUTER_BOUND('',#104,.T.);
#50=TOROIDAL_SURFACE('',#209,3.58238934628306,0.799999999999995);
#51=TOROIDAL_SURFACE('',#213,2.2,0.800000000000003);
#52=ADVANCED_FACE('',(#70,#71),#64,.T.);
#53=ADVANCED_FACE('',(#72,#73),#65,.T.);
#54=ADVANCED_FACE('',(#74,#75),#50,.F.);
#55=ADVANCED_FACE('',(#76,#77),#66,.T.);
#56=ADVANCED_FACE('',(#78,#79),#51,.T.);
#57=ADVANCED_FACE('',(#47),#44,.T.);
#58=ADVANCED_FACE('',(#80,#81),#67,.T.);
#59=ADVANCED_FACE('SHANK',(#82,#83),#43,.T.);
#60=ADVANCED_FACE('',(#48),#45,.T.);
#61=ADVANCED_FACE('',(#49),#46,.T.);
#62=ADVANCED_FACE('',(#84,#85),#68,.T.);
#63=ADVANCED_FACE('',(#86,#87),#69,.T.);
#64=CONICAL_SURFACE('',#205,2.80018750001925,0.035809857528487);
#65=CONICAL_SURFACE('',#207,2.78251064807097,0.035809875402536);
#66=CONICAL_SURFACE('',#211,2.88870406011029,29.8758701637565);
#67=CONICAL_SURFACE('',#217,3.,45.);
#68=CONICAL_SURFACE('',#223,2.80018750001925,0.035809857528487);
#69=CONICAL_SURFACE('',#224,1.77635683940025E-15,70.);
#70=FACE_BOUND('',#88,.T.);
#71=FACE_BOUND('',#89,.T.);
#72=FACE_BOUND('',#90,.T.);
#73=FACE_BOUND('',#91,.T.);
#74=FACE_BOUND('',#92,.T.);
#75=FACE_BOUND('',#93,.T.);
#76=FACE_BOUND('',#94,.T.);
#77=FACE_BOUND('',#95,.T.);
#78=FACE_BOUND('',#96,.T.);
#79=FACE_BOUND('',#97,.T.);
#80=FACE_BOUND('',#99,.T.);
#81=FACE_BOUND('',#100,.T.);
#82=FACE_BOUND('',#101,.T.);
#83=FACE_BOUND('',#102,.T.);
#84=FACE_BOUND('',#105,.T.);
#85=FACE_BOUND('',#106,.T.);
#86=FACE_BOUND('',#107,.T.);
#87=FACE_BOUND('',#28,.T.);
#88=EDGE_LOOP('',(#108));
#89=EDGE_LOOP('',(#109));
#90=EDGE_LOOP('',(#110));
#91=EDGE_LOOP('',(#111));
#92=EDGE_LOOP('',(#112));
#93=EDGE_LOOP('',(#113));
#94=EDGE_LOOP('',(#114));
#95=EDGE_LOOP('',(#115));
#96=EDGE_LOOP('',(#116));
#97=EDGE_LOOP('',(#117));
#98=EDGE_LOOP('',(#118));
#99=EDGE_LOOP('',(#119));
#100=EDGE_LOOP('',(#120));
#101=EDGE_LOOP('',(#121));
#102=EDGE_LOOP('',(#122));
#103=EDGE_LOOP('',(#123));
#104=EDGE_LOOP('',(#124));
#105=EDGE_LOOP('',(#125));
#106=EDGE_LOOP('',(#126));
#107=EDGE_LOOP('',(#127));
#108=ORIENTED_EDGE('',*,*,#139,.F.);
#109=ORIENTED_EDGE('',*,*,#140,.F.);
#110=ORIENTED_EDGE('',*,*,#141,.F.);
#111=ORIENTED_EDGE('',*,*,#139,.T.);
#112=ORIENTED_EDGE('',*,*,#142,.F.);
#113=ORIENTED_EDGE('',*,*,#141,.T.);
#114=ORIENTED_EDGE('',*,*,#143,.F.);
#115=ORIENTED_EDGE('',*,*,#142,.T.);
#116=ORIENTED_EDGE('',*,*,#144,.F.);
#117=ORIENTED_EDGE('',*,*,#143,.T.);
#118=ORIENTED_EDGE('',*,*,#145,.F.);
#119=ORIENTED_EDGE('',*,*,#145,.T.);
#120=ORIENTED_EDGE('',*,*,#146,.F.);
#121=ORIENTED_EDGE('',*,*,#146,.T.);
#122=ORIENTED_EDGE('',*,*,#144,.T.);
#123=ORIENTED_EDGE('',*,*,#140,.T.);
#124=ORIENTED_EDGE('',*,*,#147,.T.);
#125=ORIENTED_EDGE('',*,*,#148,.T.);
#126=ORIENTED_EDGE('',*,*,#147,.F.);
#127=ORIENTED_EDGE('',*,*,#148,.F.);
#128=VERTEX_POINT('',#298);
#129=VERTEX_POINT('',#300);
#130=VERTEX_POINT('',#303);
#131=VERTEX_POINT('',#306);
#132=VERTEX_POINT('',#309);
#133=VERTEX_POINT('',#312);
#134=VERTEX_POINT('',#315);
#135=VERTEX_POINT('',#318);
#136=VERTEX_POINT('',#323);
#137=VERTEX_POINT('',#326);
#138=VERTEX_POINT('',#328);
#139=EDGE_CURVE('',#128,#128,#149,.T.);
#140=EDGE_CURVE('',#129,#129,#150,.T.);
#141=EDGE_CURVE('',#130,#130,#151,.T.);
#142=EDGE_CURVE('',#131,#131,#152,.T.);
#143=EDGE_CURVE('',#132,#132,#153,.T.);
#144=EDGE_CURVE('',#133,#133,#154,.T.);
#145=EDGE_CURVE('',#134,#134,#155,.T.);
#146=EDGE_CURVE('',#135,#135,#156,.T.);
#147=EDGE_CURVE('',#136,#136,#157,.T.);
#148=EDGE_CURVE('',#137,#137,#158,.T.);
#149=CIRCLE('',#203,2.78251064801052);
#150=CIRCLE('',#204,2.78813564800982);
#151=CIRCLE('',#206,2.78238950253301);
#152=CIRCLE('',#208,2.88870406011029);
#153=CIRCLE('',#210,2.89368528617277);
#154=CIRCLE('',#212,3.);
#155=CIRCLE('',#214,2.065);
#156=CIRCLE('',#216,3.);
#157=CIRCLE('',#220,2.78813564800982);
#158=CIRCLE('',#222,2.8);
#159=CURVE_STYLE('',#163,POSITIVE_LENGTH_MEASURE(0.18),#169);
#160=CURVE_STYLE('',#164,POSITIVE_LENGTH_MEASURE(0.13),#196);
#161=CURVE_STYLE('',#165,POSITIVE_LENGTH_MEASURE(0.18),#195);
#162=CURVE_STYLE('',#166,POSITIVE_LENGTH_MEASURE(0.18),#195);
#163=DRAUGHTING_PRE_DEFINED_CURVE_FONT('continuous');
#164=DRAUGHTING_PRE_DEFINED_CURVE_FONT('continuous');
#165=DRAUGHTING_PRE_DEFINED_CURVE_FONT('continuous');
#166=DRAUGHTING_PRE_DEFINED_CURVE_FONT('continuous');
#167=B_SPLINE_CURVE_WITH_KNOTS('CUTTING PART LINE',3,(#281,#282,#283,#284,
#285,#286,#287,#288,#289,#290,#291,#292,#293),.UNSPECIFIED.,.T.,.F.,(4,
3,3,3,4),(0.,0.446940148947522,0.509246637037984,0.933412671901211,1.),
 .UNSPECIFIED.);
#168=DRAUGHTING_PRE_DEFINED_COLOUR('white');
#169=DRAUGHTING_PRE_DEFINED_COLOUR('blue');
#170=PRESENTATION_LAYER_ASSIGNMENT('1','Layer 1',(#278,#279,#280,#167,#200,
#201,#202,#39,#40));
#171=STYLED_ITEM('',(#180),#278);
#172=STYLED_ITEM('',(#181),#279);
#173=STYLED_ITEM('',(#182),#280);
#174=STYLED_ITEM('',(#183),#167);
#175=STYLED_ITEM('',(#184),#200);
#176=STYLED_ITEM('',(#185),#201);
#177=STYLED_ITEM('',(#186),#202);
#178=STYLED_ITEM('',(#187),#39);
#179=STYLED_ITEM('',(#188),#40);
#180=PRESENTATION_STYLE_ASSIGNMENT((#189));
#181=PRESENTATION_STYLE_ASSIGNMENT((#190));
#182=PRESENTATION_STYLE_ASSIGNMENT((#191));
#183=PRESENTATION_STYLE_ASSIGNMENT((#159));
#184=PRESENTATION_STYLE_ASSIGNMENT((#160));
#185=PRESENTATION_STYLE_ASSIGNMENT((#161));
#186=PRESENTATION_STYLE_ASSIGNMENT((#162));
#187=PRESENTATION_STYLE_ASSIGNMENT((#29));
#188=PRESENTATION_STYLE_ASSIGNMENT((#30));
#189=POINT_STYLE('',#192,POSITIVE_LENGTH_MEASURE(3.),#195);
#190=POINT_STYLE('',#193,POSITIVE_LENGTH_MEASURE(3.),#168);
#191=POINT_STYLE('',#194,POSITIVE_LENGTH_MEASURE(3.),#195);
#192=PRE_DEFINED_POINT_MARKER_SYMBOL('plus');
#193=PRE_DEFINED_POINT_MARKER_SYMBOL('plus');
#194=PRE_DEFINED_POINT_MARKER_SYMBOL('plus');
#195=COLOUR_RGB('Medium Maroon',0.6,0.4,0.4);
#196=COLOUR_RGB('Silver Gray',0.6,0.6,0.6);
#197=COLOUR_RGB('TLS_NOCUT',0.498023956664378,0.498023956664378,0.498023956664378);
#198=COLOUR_RGB('TLS_CUT',0.8,0.8,0.8);
#199=AXIS2_PLACEMENT_3D('',#277,#225,#226);
#200=AXIS2_PLACEMENT_3D('PCS',#294,#227,#228);
#201=AXIS2_PLACEMENT_3D('MCS',#295,#229,#230);
#202=AXIS2_PLACEMENT_3D('CIP',#296,#231,#232);
#203=AXIS2_PLACEMENT_3D('',#297,#233,#234);
#204=AXIS2_PLACEMENT_3D('',#299,#235,#236);
#205=AXIS2_PLACEMENT_3D('',#301,#237,#238);
#206=AXIS2_PLACEMENT_3D('',#302,#239,#240);
#207=AXIS2_PLACEMENT_3D('',#304,#241,#242);
#208=AXIS2_PLACEMENT_3D('',#305,#243,#244);
#209=AXIS2_PLACEMENT_3D('',#307,#245,#246);
#210=AXIS2_PLACEMENT_3D('',#308,#247,#248);
#211=AXIS2_PLACEMENT_3D('',#310,#249,#250);
#212=AXIS2_PLACEMENT_3D('',#311,#251,#252);
#213=AXIS2_PLACEMENT_3D('',#313,#253,#254);
#214=AXIS2_PLACEMENT_3D('',#314,#255,#256);
#215=AXIS2_PLACEMENT_3D('',#316,#257,#258);
#216=AXIS2_PLACEMENT_3D('',#317,#259,#260);
#217=AXIS2_PLACEMENT_3D('',#319,#261,#262);
#218=AXIS2_PLACEMENT_3D('',#320,#263,#264);
#219=AXIS2_PLACEMENT_3D('',#321,#265,#266);
#220=AXIS2_PLACEMENT_3D('',#322,#267,#268);
#221=AXIS2_PLACEMENT_3D('',#324,#269,#270);
#222=AXIS2_PLACEMENT_3D('',#325,#271,#272);
#223=AXIS2_PLACEMENT_3D('',#327,#273,#274);
#224=AXIS2_PLACEMENT_3D('',#329,#275,#276);
#225=DIRECTION('',(0.,0.,1.));
#226=DIRECTION('',(1.,0.,0.));
#227=DIRECTION('',(0.,0.,1.));
#228=DIRECTION('',(1.,0.,0.));
#229=DIRECTION('',(0.,0.,1.));
#230=DIRECTION('',(1.,0.,0.));
#231=DIRECTION('',(0.,0.,1.));
#232=DIRECTION('',(1.,0.,0.));
#233=DIRECTION('',(0.,0.,1.));
#234=DIRECTION('',(-1.,0.,0.));
#235=DIRECTION('',(0.,0.,-1.));
#236=DIRECTION('',(-1.,0.,0.));
#237=DIRECTION('',(0.,0.,-1.));
#238=DIRECTION('',(-1.,0.,2.43101222482875E-14));
#239=DIRECTION('',(0.,0.,1.));
#240=DIRECTION('',(1.,0.,0.));
#241=DIRECTION('',(0.,0.,-1.));
#242=DIRECTION('',(-1.,0.,2.44362315559505E-14));
#243=DIRECTION('',(0.,0.,1.));
#244=DIRECTION('',(1.,0.,0.));
#245=DIRECTION('',(0.,0.,1.));
#246=DIRECTION('',(1.,0.,0.));
#247=DIRECTION('',(0.,0.,1.));
#248=DIRECTION('',(1.,0.,0.));
#249=DIRECTION('',(0.,0.,1.));
#250=DIRECTION('',(1.,0.,4.80737610959289E-17));
#251=DIRECTION('',(0.,0.,1.));
#252=DIRECTION('',(1.,0.,0.));
#253=DIRECTION('',(0.,0.,1.));
#254=DIRECTION('',(1.,0.,0.));
#255=DIRECTION('',(0.,0.,-1.));
#256=DIRECTION('',(-1.,0.,0.));
#257=DIRECTION('',(0.,0.,1.));
#258=DIRECTION('',(1.,0.,0.));
#259=DIRECTION('',(0.,0.,-1.));
#260=DIRECTION('',(-1.,0.,0.));
#261=DIRECTION('',(0.,0.,-1.));
#262=DIRECTION('',(-1.,0.,9.3394883053587E-17));
#263=DIRECTION('',(0.,0.,-1.));
#264=DIRECTION('',(-1.,0.,0.));
#265=DIRECTION('',(0.,0.,-1.));
#266=DIRECTION('',(-1.,0.,0.));
#267=DIRECTION('',(0.,0.,1.));
#268=DIRECTION('',(1.,0.,0.));
#269=DIRECTION('',(0.,0.,1.));
#270=DIRECTION('',(1.,0.,0.));
#271=DIRECTION('',(0.,0.,1.));
#272=DIRECTION('',(1.,0.,0.));
#273=DIRECTION('',(0.,0.,-1.));
#274=DIRECTION('',(-1.,0.,2.43101222482875E-14));
#275=DIRECTION('',(0.,0.,1.));
#276=DIRECTION('',(1.,0.,-2.02044067180275E-17));
#277=CARTESIAN_POINT('',(0.,0.,0.));
#278=CARTESIAN_POINT('',(0.,0.,-36.));
#279=CARTESIAN_POINT('CRP',(-2.8,0.,-64.981));
#280=CARTESIAN_POINT('CIP_DCSYS',(0.,0.,-66.));
#281=CARTESIAN_POINT('',(0.,0.,-66.));
#282=CARTESIAN_POINT('',(0.,0.,-59.3333333333333));
#283=CARTESIAN_POINT('',(0.,0.,-52.6666666666667));
#284=CARTESIAN_POINT('',(0.,0.,-46.));
#285=CARTESIAN_POINT('',(-0.929378549336608,0.,-46.));
#286=CARTESIAN_POINT('',(-1.85875709867322,0.,-46.));
#287=CARTESIAN_POINT('',(-2.78813564800982,0.,-46.0000000000002));
#288=CARTESIAN_POINT('',(-2.79208999880456,0.,-52.3269612723577));
#289=CARTESIAN_POINT('',(-2.79604434959929,0.,-58.6539225447151));
#290=CARTESIAN_POINT('',(-2.79999935019701,0.,-64.9808835805636));
#291=CARTESIAN_POINT('',(-1.86666666666667,0.,-65.3205888960364));
#292=CARTESIAN_POINT('',(-0.933333333333336,0.,-65.6602944480182));
#293=CARTESIAN_POINT('',(-1.96924332082738E-15,0.,-66.));
#294=CARTESIAN_POINT('',(0.,0.,0.));
#295=CARTESIAN_POINT('',(0.,0.,-36.));
#296=CARTESIAN_POINT('',(0.,0.,-66.));
#297=CARTESIAN_POINT('',(0.,0.,-37.));
#298=CARTESIAN_POINT('',(-2.78251064801052,0.,-37.));
#299=CARTESIAN_POINT('',(0.,0.,-46.));
#300=CARTESIAN_POINT('',(-2.78813564800982,0.,-46.));
#301=CARTESIAN_POINT('',(0.,0.,-65.282963217473));
#302=CARTESIAN_POINT('',(0.,0.,-36.8061672359764));
#303=CARTESIAN_POINT('',(2.78238950253301,0.,-36.8061672359764));
#304=CARTESIAN_POINT('',(0.,0.,-37.));
#305=CARTESIAN_POINT('',(0.,0.,-36.4071691510756));
#306=CARTESIAN_POINT('',(2.88870406011029,0.,-36.4071691510756));
#307=CARTESIAN_POINT('',(0.,0.,-36.805667236074));
#308=CARTESIAN_POINT('',(0.,0.,-36.3984980849984));
#309=CARTESIAN_POINT('',(2.89368528617277,0.,-36.3984980849984));
#310=CARTESIAN_POINT('',(0.,0.,-36.4071691510756));
#311=CARTESIAN_POINT('',(0.,0.,-36.));
#312=CARTESIAN_POINT('',(3.,0.,-36.));
#313=CARTESIAN_POINT('',(0.,0.,-36.));
#314=CARTESIAN_POINT('',(0.,0.,0.));
#315=CARTESIAN_POINT('',(-2.065,0.,0.));
#316=CARTESIAN_POINT('',(-2.065,0.,5.55111512312578E-17));
#317=CARTESIAN_POINT('',(0.,0.,-0.935000000000002));
#318=CARTESIAN_POINT('',(-3.,0.,-0.935000000000002));
#319=CARTESIAN_POINT('',(0.,0.,-0.935000000000002));
#320=CARTESIAN_POINT('',(0.,0.,20.9080749503476));
#321=CARTESIAN_POINT('',(0.,0.,-46.));
#322=CARTESIAN_POINT('',(0.,0.,-46.));
#323=CARTESIAN_POINT('',(2.78813564800982,0.,-46.));
#324=CARTESIAN_POINT('',(0.,0.,-46.));
#325=CARTESIAN_POINT('',(0.,-1.77635683940025E-15,-64.9808833440546));
#326=CARTESIAN_POINT('',(2.8,-1.77635683940025E-15,-64.9808833440546));
#327=CARTESIAN_POINT('',(0.,0.,-65.282963217473));
#328=CARTESIAN_POINT('',(0.,0.,-66.));
#329=CARTESIAN_POINT('',(0.,-1.77635683940025E-15,-66.));
#330=MECHANICAL_DESIGN_GEOMETRIC_PRESENTATION_REPRESENTATION('',(#171,#172,
#173,#174,#175,#176,#177,#178,#179),#331);
#331=(
GEOMETRIC_REPRESENTATION_CONTEXT(3)
GLOBAL_UNCERTAINTY_ASSIGNED_CONTEXT((#332))
GLOBAL_UNIT_ASSIGNED_CONTEXT((#338,#334,#333))
REPRESENTATION_CONTEXT('TOOL','TOP_LEVEL_ASSEMBLY_PART')
);
#332=UNCERTAINTY_MEASURE_WITH_UNIT(LENGTH_MEASURE(2.E-5),#338,
'DISTANCE_ACCURACY_VALUE','Maximum Tolerance applied to model');
#333=(
NAMED_UNIT(*)
SI_UNIT($,.STERADIAN.)
SOLID_ANGLE_UNIT()
);
#334=(
CONVERSION_BASED_UNIT('DEGREE',#336)
NAMED_UNIT(#335)
PLANE_ANGLE_UNIT()
);
#335=DIMENSIONAL_EXPONENTS(0.,0.,0.,0.,0.,0.,0.);
#336=PLANE_ANGLE_MEASURE_WITH_UNIT(PLANE_ANGLE_MEASURE(0.0174532925),#337);
#337=(
NAMED_UNIT(*)
PLANE_ANGLE_UNIT()
SI_UNIT($,.RADIAN.)
);
#338=(
LENGTH_UNIT()
NAMED_UNIT(*)
SI_UNIT(.MILLI.,.METRE.)
);
ENDSEC;
END-ISO-10303-21;
