ISO-10303-21;
HEADER;
/* Generated by software containing ST-Developer
 * from STEP Tools, Inc. (www.steptools.com) 
 */
/* OPTION: using custom schema-name function */

FILE_DESCRIPTION(
/* description */ (''),
/* implementation_level */ '2;1');

FILE_NAME(
/* name */ 'TOOLCOMP_1.STP',
/* time_stamp */ '2024-06-04T10:36:27+02:00',
/* author */ (''),
/* organization */ ('SMS'),
/* preprocessor_version */ 'ST-DEVELOPER v16.7',
/* originating_system */ 'SIEMENS PLM Software NX 12.0',
/* authorisation */ '');

FILE_SCHEMA (('AUTOMOTIVE_DESIGN { 1 0 10303 214 3 1 1 1 }'));
ENDSEC;

DATA;
#10=CONTEXT_DEPENDENT_SHAPE_REPRESENTATION(#12,#30);
#11=NEXT_ASSEMBLY_USAGE_OCCURRENCE('1001',' ',
'NOCUT_COMP20240604103428',#32,#31,$);
#12=(
REPRESENTATION_RELATIONSHIP(' ',' ',#45,#46)
REPRESENTATION_RELATIONSHIP_WITH_TRANSFORMATION(#13)
SHAPE_REPRESENTATION_RELATIONSHIP()
);
#13=ITEM_DEFINED_TRANSFORMATION(' ',' ',#395,#455);
#14=CONSTRUCTIVE_GEOMETRY_REPRESENTATION_RELATIONSHIP(
'supplemental geometry','',#45,#16);
#15=CONSTRUCTIVE_GEOMETRY_REPRESENTATION_RELATIONSHIP(
'supplemental geometry','',#46,#17);
#16=CONSTRUCTIVE_GEOMETRY_REPRESENTATION('supplemental geometry',(#426,
#427),#671);
#17=CONSTRUCTIVE_GEOMETRY_REPRESENTATION('supplemental geometry',(#396,
#397,#398),#670);
#18=GEOMETRICALLY_BOUNDED_WIREFRAME_SHAPE_REPRESENTATION(
'NOCUT_COMP20240604103428-None',(#47),#671);
#19=GEOMETRICALLY_BOUNDED_WIREFRAME_SHAPE_REPRESENTATION(
'TOOLCOMP_1-None',(#48),#670);
#20=SHAPE_REPRESENTATION_RELATIONSHIP('None',
'relationship between NOCUT_COMP20240604103428-None and NOCUT_COMP2024
0604103428-None',#45,#24);
#21=SHAPE_REPRESENTATION_RELATIONSHIP('None',
'relationship between NOCUT_COMP20240604103428-None and NOCUT_COMP2024
0604103428-None',#45,#18);
#22=SHAPE_REPRESENTATION_RELATIONSHIP('None',
'relationship between TOOLCOMP_1-None and TOOLCOMP_1-None',#46,#25);
#23=SHAPE_REPRESENTATION_RELATIONSHIP('None',
'relationship between TOOLCOMP_1-None and TOOLCOMP_1-None',#46,#19);
#24=ADVANCED_BREP_SHAPE_REPRESENTATION('NOCUT_COMP20240604103428-None',
(#60),#671);
#25=ADVANCED_BREP_SHAPE_REPRESENTATION('TOOLCOMP_1-None',(#59),#670);
#26=SHAPE_DEFINITION_REPRESENTATION(#28,#45);
#27=SHAPE_DEFINITION_REPRESENTATION(#29,#46);
#28=PRODUCT_DEFINITION_SHAPE('','',#31);
#29=PRODUCT_DEFINITION_SHAPE('','',#32);
#30=PRODUCT_DEFINITION_SHAPE(' ','NAUO PRDDFN',#11);
#31=PRODUCT_DEFINITION(' ','',#35,#33);
#32=PRODUCT_DEFINITION(' ','',#36,#34);
#33=PRODUCT_DEFINITION_CONTEXT('part definition',#44,'design');
#34=PRODUCT_DEFINITION_CONTEXT('part definition',#44,'design');
#35=PRODUCT_DEFINITION_FORMATION_WITH_SPECIFIED_SOURCE(' ',' ',#39,
 .NOT_KNOWN.);
#36=PRODUCT_DEFINITION_FORMATION_WITH_SPECIFIED_SOURCE(' ',' ',#40,
 .NOT_KNOWN.);
#37=PRODUCT_RELATED_PRODUCT_CATEGORY('part','',(#39));
#38=PRODUCT_RELATED_PRODUCT_CATEGORY('part','',(#40));
#39=PRODUCT('NOCUT_COMP20240604103428','NOCUT_COMP20240604103428',' ',(#41));
#40=PRODUCT('TOOLCOMP_1','TOOLCOMP_1',' ',(#42));
#41=PRODUCT_CONTEXT(' ',#44,'mechanical');
#42=PRODUCT_CONTEXT(' ',#44,'mechanical');
#43=APPLICATION_PROTOCOL_DEFINITION('international standard',
'automotive_design',2010,#44);
#44=APPLICATION_CONTEXT(
'core data for automotive mechanical design processes');
#45=SHAPE_REPRESENTATION('NOCUT_COMP20240604103428-None',(#395),#671);
#46=SHAPE_REPRESENTATION('TOOLCOMP_1-None',(#395,#455),#670);
#47=GEOMETRIC_CURVE_SET('None',(#624));
#48=GEOMETRIC_CURVE_SET('None',(#579,#580));
#49=SURFACE_STYLE_USAGE(.BOTH.,#51);
#50=SURFACE_STYLE_USAGE(.BOTH.,#52);
#51=SURFACE_SIDE_STYLE('',(#53));
#52=SURFACE_SIDE_STYLE('',(#54));
#53=SURFACE_STYLE_FILL_AREA(#55);
#54=SURFACE_STYLE_FILL_AREA(#56);
#55=FILL_AREA_STYLE('',(#57));
#56=FILL_AREA_STYLE('',(#58));
#57=FILL_AREA_STYLE_COLOUR('',#394);
#58=FILL_AREA_STYLE_COLOUR('',#394);
#59=MANIFOLD_SOLID_BREP('NOCUT',#61);
#60=MANIFOLD_SOLID_BREP('NOCUT',#62);
#61=CLOSED_SHELL('',(#85,#86,#87,#88,#89,#90,#91,#92,#93,#94,#95,#96,#97,
#98));
#62=CLOSED_SHELL('',(#99,#100,#101,#102,#103,#104,#105,#106,#107,#108,#109,
#110,#111,#112));
#63=TOROIDAL_SURFACE('',#413,29.8,6.00000000000001);
#64=TOROIDAL_SURFACE('',#417,24.4,0.600000000000001);
#65=TOROIDAL_SURFACE('',#442,29.8,6.00000000000001);
#66=TOROIDAL_SURFACE('',#446,24.4,0.600000000000001);
#67=CONICAL_SURFACE('',#408,37.5,2.86813194068667);
#68=CONICAL_SURFACE('',#419,23.8204445042266,14.9999999999998);
#69=CONICAL_SURFACE('',#424,19.,44.9999999999998);
#70=CONICAL_SURFACE('',#437,37.5,2.86813194068667);
#71=CONICAL_SURFACE('',#448,23.8204445042266,14.9999999999998);
#72=CONICAL_SURFACE('',#453,19.,44.9999999999998);
#73=FACE_OUTER_BOUND('',#177,.T.);
#74=FACE_OUTER_BOUND('',#196,.T.);
#75=FACE_OUTER_BOUND('',#203,.T.);
#76=FACE_OUTER_BOUND('',#222,.T.);
#77=CYLINDRICAL_SURFACE('',#405,50.);
#78=CYLINDRICAL_SURFACE('',#415,23.8);
#79=CYLINDRICAL_SURFACE('',#420,32.);
#80=CYLINDRICAL_SURFACE('',#422,24.);
#81=CYLINDRICAL_SURFACE('',#434,50.);
#82=CYLINDRICAL_SURFACE('',#444,23.8);
#83=CYLINDRICAL_SURFACE('',#449,32.);
#84=CYLINDRICAL_SURFACE('',#451,24.);
#85=ADVANCED_FACE('CU_FL_N2_SU_5',(#123,#124),#113,.T.);
#86=ADVANCED_FACE('CU_FL_N2_SU_1',(#125,#126),#114,.T.);
#87=ADVANCED_FACE('CU_FL_N2_SU_3',(#127,#128),#77,.T.);
#88=ADVANCED_FACE('CU_CO_N1_SU_3',(#73),#115,.F.);
#89=ADVANCED_FACE('CU_CO_N1_SU_1',(#129,#130),#67,.T.);
#90=ADVANCED_FACE('FL_GR_N1_SU_1',(#131,#132),#116,.T.);
#91=ADVANCED_FACE('FL_GR_N1_SU_11',(#133,#134),#63,.F.);
#92=ADVANCED_FACE('FL_GR_N1_SU_2',(#135,#136),#78,.T.);
#93=ADVANCED_FACE('FL_GR_N1_SU_21',(#137,#138),#64,.F.);
#94=ADVANCED_FACE('FL_GR_N1_SU_3',(#139,#140),#68,.T.);
#95=ADVANCED_FACE('FL_GR_N1_SU_5',(#141,#142),#79,.F.);
#96=ADVANCED_FACE('CN_RED_SU_2',(#143,#144),#80,.T.);
#97=ADVANCED_FACE('CHF_CYL_N2_SU_1',(#145,#146),#69,.T.);
#98=ADVANCED_FACE('CN_RED_SU_3',(#74),#117,.T.);
#99=ADVANCED_FACE('CU_FL_N2_SU_5',(#147,#148),#118,.T.);
#100=ADVANCED_FACE('CU_FL_N2_SU_1',(#149,#150),#119,.T.);
#101=ADVANCED_FACE('CU_FL_N2_SU_3',(#151,#152),#81,.T.);
#102=ADVANCED_FACE('CU_CO_N1_SU_3',(#75),#120,.F.);
#103=ADVANCED_FACE('CU_CO_N1_SU_1',(#153,#154),#70,.T.);
#104=ADVANCED_FACE('FL_GR_N1_SU_1',(#155,#156),#121,.T.);
#105=ADVANCED_FACE('FL_GR_N1_SU_11',(#157,#158),#65,.F.);
#106=ADVANCED_FACE('FL_GR_N1_SU_2',(#159,#160),#82,.T.);
#107=ADVANCED_FACE('FL_GR_N1_SU_21',(#161,#162),#66,.F.);
#108=ADVANCED_FACE('FL_GR_N1_SU_3',(#163,#164),#71,.T.);
#109=ADVANCED_FACE('FL_GR_N1_SU_5',(#165,#166),#83,.F.);
#110=ADVANCED_FACE('CN_RED_SU_2',(#167,#168),#84,.T.);
#111=ADVANCED_FACE('CHF_CYL_N2_SU_1',(#169,#170),#72,.T.);
#112=ADVANCED_FACE('CN_RED_SU_3',(#76),#122,.T.);
#113=PLANE('',#401);
#114=PLANE('',#404);
#115=PLANE('',#407);
#116=PLANE('',#411);
#117=PLANE('',#425);
#118=PLANE('',#430);
#119=PLANE('',#433);
#120=PLANE('',#436);
#121=PLANE('',#440);
#122=PLANE('',#454);
#123=FACE_BOUND('',#171,.T.);
#124=FACE_BOUND('',#172,.T.);
#125=FACE_BOUND('',#173,.T.);
#126=FACE_BOUND('',#174,.T.);
#127=FACE_BOUND('',#175,.T.);
#128=FACE_BOUND('',#176,.T.);
#129=FACE_BOUND('',#178,.T.);
#130=FACE_BOUND('',#179,.T.);
#131=FACE_BOUND('',#180,.T.);
#132=FACE_BOUND('',#181,.T.);
#133=FACE_BOUND('',#182,.T.);
#134=FACE_BOUND('',#183,.T.);
#135=FACE_BOUND('',#184,.T.);
#136=FACE_BOUND('',#185,.T.);
#137=FACE_BOUND('',#186,.T.);
#138=FACE_BOUND('',#187,.T.);
#139=FACE_BOUND('',#188,.T.);
#140=FACE_BOUND('',#189,.T.);
#141=FACE_BOUND('',#190,.T.);
#142=FACE_BOUND('',#191,.T.);
#143=FACE_BOUND('',#192,.T.);
#144=FACE_BOUND('',#193,.T.);
#145=FACE_BOUND('',#194,.T.);
#146=FACE_BOUND('',#195,.T.);
#147=FACE_BOUND('',#197,.T.);
#148=FACE_BOUND('',#198,.T.);
#149=FACE_BOUND('',#199,.T.);
#150=FACE_BOUND('',#200,.T.);
#151=FACE_BOUND('',#201,.T.);
#152=FACE_BOUND('',#202,.T.);
#153=FACE_BOUND('',#204,.T.);
#154=FACE_BOUND('',#205,.T.);
#155=FACE_BOUND('',#206,.T.);
#156=FACE_BOUND('',#207,.T.);
#157=FACE_BOUND('',#208,.T.);
#158=FACE_BOUND('',#209,.T.);
#159=FACE_BOUND('',#210,.T.);
#160=FACE_BOUND('',#211,.T.);
#161=FACE_BOUND('',#212,.T.);
#162=FACE_BOUND('',#213,.T.);
#163=FACE_BOUND('',#214,.T.);
#164=FACE_BOUND('',#215,.T.);
#165=FACE_BOUND('',#216,.T.);
#166=FACE_BOUND('',#217,.T.);
#167=FACE_BOUND('',#218,.T.);
#168=FACE_BOUND('',#219,.T.);
#169=FACE_BOUND('',#220,.T.);
#170=FACE_BOUND('',#221,.T.);
#171=EDGE_LOOP('',(#223));
#172=EDGE_LOOP('',(#224));
#173=EDGE_LOOP('',(#225));
#174=EDGE_LOOP('',(#226));
#175=EDGE_LOOP('',(#227));
#176=EDGE_LOOP('',(#228));
#177=EDGE_LOOP('',(#229));
#178=EDGE_LOOP('',(#230));
#179=EDGE_LOOP('',(#231));
#180=EDGE_LOOP('',(#232));
#181=EDGE_LOOP('',(#233));
#182=EDGE_LOOP('',(#234));
#183=EDGE_LOOP('',(#235));
#184=EDGE_LOOP('',(#236));
#185=EDGE_LOOP('',(#237));
#186=EDGE_LOOP('',(#238));
#187=EDGE_LOOP('',(#239));
#188=EDGE_LOOP('',(#240));
#189=EDGE_LOOP('',(#241));
#190=EDGE_LOOP('',(#242));
#191=EDGE_LOOP('',(#243));
#192=EDGE_LOOP('',(#244));
#193=EDGE_LOOP('',(#245));
#194=EDGE_LOOP('',(#246));
#195=EDGE_LOOP('',(#247));
#196=EDGE_LOOP('',(#248));
#197=EDGE_LOOP('',(#249));
#198=EDGE_LOOP('',(#250));
#199=EDGE_LOOP('',(#251));
#200=EDGE_LOOP('',(#252));
#201=EDGE_LOOP('',(#253));
#202=EDGE_LOOP('',(#254));
#203=EDGE_LOOP('',(#255));
#204=EDGE_LOOP('',(#256));
#205=EDGE_LOOP('',(#257));
#206=EDGE_LOOP('',(#258));
#207=EDGE_LOOP('',(#259));
#208=EDGE_LOOP('',(#260));
#209=EDGE_LOOP('',(#261));
#210=EDGE_LOOP('',(#262));
#211=EDGE_LOOP('',(#263));
#212=EDGE_LOOP('',(#264));
#213=EDGE_LOOP('',(#265));
#214=EDGE_LOOP('',(#266));
#215=EDGE_LOOP('',(#267));
#216=EDGE_LOOP('',(#268));
#217=EDGE_LOOP('',(#269));
#218=EDGE_LOOP('',(#270));
#219=EDGE_LOOP('',(#271));
#220=EDGE_LOOP('',(#272));
#221=EDGE_LOOP('',(#273));
#222=EDGE_LOOP('',(#274));
#223=ORIENTED_EDGE('',*,*,#301,.T.);
#224=ORIENTED_EDGE('',*,*,#302,.F.);
#225=ORIENTED_EDGE('',*,*,#303,.F.);
#226=ORIENTED_EDGE('',*,*,#304,.T.);
#227=ORIENTED_EDGE('',*,*,#302,.T.);
#228=ORIENTED_EDGE('',*,*,#304,.F.);
#229=ORIENTED_EDGE('',*,*,#305,.F.);
#230=ORIENTED_EDGE('',*,*,#303,.T.);
#231=ORIENTED_EDGE('',*,*,#305,.T.);
#232=ORIENTED_EDGE('',*,*,#306,.F.);
#233=ORIENTED_EDGE('',*,*,#307,.T.);
#234=ORIENTED_EDGE('',*,*,#308,.F.);
#235=ORIENTED_EDGE('',*,*,#306,.T.);
#236=ORIENTED_EDGE('',*,*,#309,.F.);
#237=ORIENTED_EDGE('',*,*,#308,.T.);
#238=ORIENTED_EDGE('',*,*,#310,.F.);
#239=ORIENTED_EDGE('',*,*,#309,.T.);
#240=ORIENTED_EDGE('',*,*,#311,.F.);
#241=ORIENTED_EDGE('',*,*,#310,.T.);
#242=ORIENTED_EDGE('',*,*,#301,.F.);
#243=ORIENTED_EDGE('',*,*,#307,.F.);
#244=ORIENTED_EDGE('',*,*,#312,.F.);
#245=ORIENTED_EDGE('',*,*,#311,.T.);
#246=ORIENTED_EDGE('',*,*,#313,.T.);
#247=ORIENTED_EDGE('',*,*,#312,.T.);
#248=ORIENTED_EDGE('',*,*,#313,.F.);
#249=ORIENTED_EDGE('',*,*,#314,.T.);
#250=ORIENTED_EDGE('',*,*,#315,.F.);
#251=ORIENTED_EDGE('',*,*,#316,.F.);
#252=ORIENTED_EDGE('',*,*,#317,.T.);
#253=ORIENTED_EDGE('',*,*,#315,.T.);
#254=ORIENTED_EDGE('',*,*,#317,.F.);
#255=ORIENTED_EDGE('',*,*,#318,.F.);
#256=ORIENTED_EDGE('',*,*,#316,.T.);
#257=ORIENTED_EDGE('',*,*,#318,.T.);
#258=ORIENTED_EDGE('',*,*,#319,.F.);
#259=ORIENTED_EDGE('',*,*,#320,.T.);
#260=ORIENTED_EDGE('',*,*,#321,.F.);
#261=ORIENTED_EDGE('',*,*,#319,.T.);
#262=ORIENTED_EDGE('',*,*,#322,.F.);
#263=ORIENTED_EDGE('',*,*,#321,.T.);
#264=ORIENTED_EDGE('',*,*,#323,.F.);
#265=ORIENTED_EDGE('',*,*,#322,.T.);
#266=ORIENTED_EDGE('',*,*,#324,.F.);
#267=ORIENTED_EDGE('',*,*,#323,.T.);
#268=ORIENTED_EDGE('',*,*,#314,.F.);
#269=ORIENTED_EDGE('',*,*,#320,.F.);
#270=ORIENTED_EDGE('',*,*,#325,.F.);
#271=ORIENTED_EDGE('',*,*,#324,.T.);
#272=ORIENTED_EDGE('',*,*,#326,.T.);
#273=ORIENTED_EDGE('',*,*,#325,.T.);
#274=ORIENTED_EDGE('',*,*,#326,.F.);
#275=VERTEX_POINT('',#585);
#276=VERTEX_POINT('',#587);
#277=VERTEX_POINT('',#590);
#278=VERTEX_POINT('',#592);
#279=VERTEX_POINT('',#596);
#280=VERTEX_POINT('',#600);
#281=VERTEX_POINT('',#602);
#282=VERTEX_POINT('',#605);
#283=VERTEX_POINT('',#608);
#284=VERTEX_POINT('',#611);
#285=VERTEX_POINT('',#614);
#286=VERTEX_POINT('',#618);
#287=VERTEX_POINT('',#621);
#288=VERTEX_POINT('',#628);
#289=VERTEX_POINT('',#630);
#290=VERTEX_POINT('',#633);
#291=VERTEX_POINT('',#635);
#292=VERTEX_POINT('',#639);
#293=VERTEX_POINT('',#643);
#294=VERTEX_POINT('',#645);
#295=VERTEX_POINT('',#648);
#296=VERTEX_POINT('',#651);
#297=VERTEX_POINT('',#654);
#298=VERTEX_POINT('',#657);
#299=VERTEX_POINT('',#661);
#300=VERTEX_POINT('',#664);
#301=EDGE_CURVE('',#275,#275,#327,.T.);
#302=EDGE_CURVE('',#276,#276,#328,.T.);
#303=EDGE_CURVE('',#277,#277,#329,.T.);
#304=EDGE_CURVE('',#278,#278,#330,.T.);
#305=EDGE_CURVE('',#279,#279,#331,.T.);
#306=EDGE_CURVE('',#280,#280,#332,.T.);
#307=EDGE_CURVE('',#281,#281,#333,.T.);
#308=EDGE_CURVE('',#282,#282,#334,.T.);
#309=EDGE_CURVE('',#283,#283,#335,.T.);
#310=EDGE_CURVE('',#284,#284,#336,.T.);
#311=EDGE_CURVE('',#285,#285,#337,.T.);
#312=EDGE_CURVE('',#286,#286,#338,.T.);
#313=EDGE_CURVE('',#287,#287,#339,.T.);
#314=EDGE_CURVE('',#288,#288,#340,.T.);
#315=EDGE_CURVE('',#289,#289,#341,.T.);
#316=EDGE_CURVE('',#290,#290,#342,.T.);
#317=EDGE_CURVE('',#291,#291,#343,.T.);
#318=EDGE_CURVE('',#292,#292,#344,.T.);
#319=EDGE_CURVE('',#293,#293,#345,.T.);
#320=EDGE_CURVE('',#294,#294,#346,.T.);
#321=EDGE_CURVE('',#295,#295,#347,.T.);
#322=EDGE_CURVE('',#296,#296,#348,.T.);
#323=EDGE_CURVE('',#297,#297,#349,.T.);
#324=EDGE_CURVE('',#298,#298,#350,.T.);
#325=EDGE_CURVE('',#299,#299,#351,.T.);
#326=EDGE_CURVE('',#300,#300,#352,.T.);
#327=CIRCLE('',#399,32.);
#328=CIRCLE('',#400,50.);
#329=CIRCLE('',#402,38.001002004008);
#330=CIRCLE('',#403,50.);
#331=CIRCLE('',#406,35.4959919839679);
#332=CIRCLE('',#409,29.8);
#333=CIRCLE('',#410,32.);
#334=CIRCLE('',#412,23.8);
#335=CIRCLE('',#414,23.8);
#336=CIRCLE('',#416,23.8204445042266);
#337=CIRCLE('',#418,24.);
#338=CIRCLE('',#421,24.);
#339=CIRCLE('',#423,19.);
#340=CIRCLE('',#428,32.);
#341=CIRCLE('',#429,50.);
#342=CIRCLE('',#431,38.001002004008);
#343=CIRCLE('',#432,50.);
#344=CIRCLE('',#435,35.4959919839679);
#345=CIRCLE('',#438,29.8);
#346=CIRCLE('',#439,32.);
#347=CIRCLE('',#441,23.8);
#348=CIRCLE('',#443,23.8);
#349=CIRCLE('',#445,23.8204445042266);
#350=CIRCLE('',#447,24.);
#351=CIRCLE('',#450,24.);
#352=CIRCLE('',#452,19.);
#353=CURVE_STYLE('',#358,POSITIVE_LENGTH_MEASURE(0.13),#392);
#354=CURVE_STYLE('',#359,POSITIVE_LENGTH_MEASURE(0.18),#393);
#355=CURVE_STYLE('',#360,POSITIVE_LENGTH_MEASURE(0.18),#392);
#356=CURVE_STYLE('',#361,POSITIVE_LENGTH_MEASURE(0.13),#390);
#357=CURVE_STYLE('',#362,POSITIVE_LENGTH_MEASURE(0.18),#391);
#358=DRAUGHTING_PRE_DEFINED_CURVE_FONT('continuous');
#359=DRAUGHTING_PRE_DEFINED_CURVE_FONT('continuous');
#360=DRAUGHTING_PRE_DEFINED_CURVE_FONT('continuous');
#361=DRAUGHTING_PRE_DEFINED_CURVE_FONT('continuous');
#362=DRAUGHTING_PRE_DEFINED_CURVE_FONT('continuous');
#363=PRESENTATION_LAYER_ASSIGNMENT('1','Layer 1',(#579,#580,#396,#397,#398,
#59,#624,#426,#427,#60));
#364=STYLED_ITEM('',(#374),#579);
#365=STYLED_ITEM('',(#375),#580);
#366=STYLED_ITEM('',(#376),#396);
#367=STYLED_ITEM('',(#377),#397);
#368=STYLED_ITEM('',(#378),#398);
#369=STYLED_ITEM('',(#379),#59);
#370=STYLED_ITEM('',(#380),#624);
#371=STYLED_ITEM('',(#381),#426);
#372=STYLED_ITEM('',(#382),#427);
#373=STYLED_ITEM('',(#383),#60);
#374=PRESENTATION_STYLE_ASSIGNMENT((#384));
#375=PRESENTATION_STYLE_ASSIGNMENT((#385));
#376=PRESENTATION_STYLE_ASSIGNMENT((#353));
#377=PRESENTATION_STYLE_ASSIGNMENT((#354));
#378=PRESENTATION_STYLE_ASSIGNMENT((#355));
#379=PRESENTATION_STYLE_ASSIGNMENT((#49));
#380=PRESENTATION_STYLE_ASSIGNMENT((#386));
#381=PRESENTATION_STYLE_ASSIGNMENT((#356));
#382=PRESENTATION_STYLE_ASSIGNMENT((#357));
#383=PRESENTATION_STYLE_ASSIGNMENT((#50));
#384=POINT_STYLE('',#387,POSITIVE_LENGTH_MEASURE(3.),#390);
#385=POINT_STYLE('',#388,POSITIVE_LENGTH_MEASURE(3.),#391);
#386=POINT_STYLE('',#389,POSITIVE_LENGTH_MEASURE(3.),#391);
#387=PRE_DEFINED_POINT_MARKER_SYMBOL('plus');
#388=PRE_DEFINED_POINT_MARKER_SYMBOL('plus');
#389=PRE_DEFINED_POINT_MARKER_SYMBOL('plus');
#390=COLOUR_RGB('Silver Gray',0.6,0.6,0.6);
#391=COLOUR_RGB('Medium Maroon',0.6,0.4,0.4);
#392=COLOUR_RGB('Pale Sky',0.882337682154574,0.960769054703594,1.);
#393=COLOUR_RGB('Strong Emerald',0.,0.803921568627451,0.525490196078431);
#394=COLOUR_RGB('TLS_NOCUT',0.498023956664378,0.498023956664378,0.498023956664378);
#395=AXIS2_PLACEMENT_3D('',#578,#456,#457);
#396=AXIS2_PLACEMENT_3D('PCS',#581,#458,#459);
#397=AXIS2_PLACEMENT_3D('CSW',#582,#460,#461);
#398=AXIS2_PLACEMENT_3D('MCS',#583,#462,#463);
#399=AXIS2_PLACEMENT_3D('',#584,#464,#465);
#400=AXIS2_PLACEMENT_3D('',#586,#466,#467);
#401=AXIS2_PLACEMENT_3D('',#588,#468,#469);
#402=AXIS2_PLACEMENT_3D('',#589,#470,#471);
#403=AXIS2_PLACEMENT_3D('',#591,#472,#473);
#404=AXIS2_PLACEMENT_3D('',#593,#474,#475);
#405=AXIS2_PLACEMENT_3D('',#594,#476,#477);
#406=AXIS2_PLACEMENT_3D('',#595,#478,#479);
#407=AXIS2_PLACEMENT_3D('',#597,#480,#481);
#408=AXIS2_PLACEMENT_3D('',#598,#482,#483);
#409=AXIS2_PLACEMENT_3D('',#599,#484,#485);
#410=AXIS2_PLACEMENT_3D('',#601,#486,#487);
#411=AXIS2_PLACEMENT_3D('',#603,#488,#489);
#412=AXIS2_PLACEMENT_3D('',#604,#490,#491);
#413=AXIS2_PLACEMENT_3D('',#606,#492,#493);
#414=AXIS2_PLACEMENT_3D('',#607,#494,#495);
#415=AXIS2_PLACEMENT_3D('',#609,#496,#497);
#416=AXIS2_PLACEMENT_3D('',#610,#498,#499);
#417=AXIS2_PLACEMENT_3D('',#612,#500,#501);
#418=AXIS2_PLACEMENT_3D('',#613,#502,#503);
#419=AXIS2_PLACEMENT_3D('',#615,#504,#505);
#420=AXIS2_PLACEMENT_3D('',#616,#506,#507);
#421=AXIS2_PLACEMENT_3D('',#617,#508,#509);
#422=AXIS2_PLACEMENT_3D('',#619,#510,#511);
#423=AXIS2_PLACEMENT_3D('',#620,#512,#513);
#424=AXIS2_PLACEMENT_3D('',#622,#514,#515);
#425=AXIS2_PLACEMENT_3D('',#623,#516,#517);
#426=AXIS2_PLACEMENT_3D('PCS',#625,#518,#519);
#427=AXIS2_PLACEMENT_3D('MCS',#626,#520,#521);
#428=AXIS2_PLACEMENT_3D('',#627,#522,#523);
#429=AXIS2_PLACEMENT_3D('',#629,#524,#525);
#430=AXIS2_PLACEMENT_3D('',#631,#526,#527);
#431=AXIS2_PLACEMENT_3D('',#632,#528,#529);
#432=AXIS2_PLACEMENT_3D('',#634,#530,#531);
#433=AXIS2_PLACEMENT_3D('',#636,#532,#533);
#434=AXIS2_PLACEMENT_3D('',#637,#534,#535);
#435=AXIS2_PLACEMENT_3D('',#638,#536,#537);
#436=AXIS2_PLACEMENT_3D('',#640,#538,#539);
#437=AXIS2_PLACEMENT_3D('',#641,#540,#541);
#438=AXIS2_PLACEMENT_3D('',#642,#542,#543);
#439=AXIS2_PLACEMENT_3D('',#644,#544,#545);
#440=AXIS2_PLACEMENT_3D('',#646,#546,#547);
#441=AXIS2_PLACEMENT_3D('',#647,#548,#549);
#442=AXIS2_PLACEMENT_3D('',#649,#550,#551);
#443=AXIS2_PLACEMENT_3D('',#650,#552,#553);
#444=AXIS2_PLACEMENT_3D('',#652,#554,#555);
#445=AXIS2_PLACEMENT_3D('',#653,#556,#557);
#446=AXIS2_PLACEMENT_3D('',#655,#558,#559);
#447=AXIS2_PLACEMENT_3D('',#656,#560,#561);
#448=AXIS2_PLACEMENT_3D('',#658,#562,#563);
#449=AXIS2_PLACEMENT_3D('',#659,#564,#565);
#450=AXIS2_PLACEMENT_3D('',#660,#566,#567);
#451=AXIS2_PLACEMENT_3D('',#662,#568,#569);
#452=AXIS2_PLACEMENT_3D('',#663,#570,#571);
#453=AXIS2_PLACEMENT_3D('',#665,#572,#573);
#454=AXIS2_PLACEMENT_3D('',#666,#574,#575);
#455=AXIS2_PLACEMENT_3D('',#667,#576,#577);
#456=DIRECTION('',(0.,0.,1.));
#457=DIRECTION('',(1.,0.,0.));
#458=DIRECTION('',(0.,0.,1.));
#459=DIRECTION('',(1.,0.,0.));
#460=DIRECTION('',(0.,0.,1.));
#461=DIRECTION('',(1.,0.,0.));
#462=DIRECTION('',(0.,0.,1.));
#463=DIRECTION('',(1.,0.,0.));
#464=DIRECTION('',(0.,0.,1.));
#465=DIRECTION('',(-1.,0.,0.));
#466=DIRECTION('',(0.,0.,1.));
#467=DIRECTION('',(1.,0.,0.));
#468=DIRECTION('',(0.,0.,-1.));
#469=DIRECTION('',(-1.,0.,0.));
#470=DIRECTION('',(0.,0.,1.));
#471=DIRECTION('',(1.,0.,0.));
#472=DIRECTION('',(0.,0.,1.));
#473=DIRECTION('',(1.,0.,0.));
#474=DIRECTION('',(0.,0.,1.));
#475=DIRECTION('',(1.,0.,0.));
#476=DIRECTION('',(0.,0.,1.));
#477=DIRECTION('',(1.,0.,0.));
#478=DIRECTION('',(0.,0.,-1.));
#479=DIRECTION('',(-1.,0.,0.));
#480=DIRECTION('',(0.,0.,-1.));
#481=DIRECTION('',(-1.,0.,0.));
#482=DIRECTION('',(0.,0.,-1.));
#483=DIRECTION('',(-1.,0.,4.7526561849124E-16));
#484=DIRECTION('',(0.,0.,-1.));
#485=DIRECTION('',(1.,0.,0.));
#486=DIRECTION('',(0.,0.,-1.));
#487=DIRECTION('',(1.,0.,0.));
#488=DIRECTION('',(0.,0.,-1.));
#489=DIRECTION('',(-1.,0.,0.));
#490=DIRECTION('',(0.,0.,-1.));
#491=DIRECTION('',(1.,0.,0.));
#492=DIRECTION('',(0.,0.,1.));
#493=DIRECTION('',(1.,0.,0.));
#494=DIRECTION('',(0.,0.,-1.));
#495=DIRECTION('',(1.,0.,0.));
#496=DIRECTION('',(0.,0.,1.));
#497=DIRECTION('',(1.,0.,0.));
#498=DIRECTION('',(0.,0.,-1.));
#499=DIRECTION('',(1.,0.,0.));
#500=DIRECTION('',(0.,0.,1.));
#501=DIRECTION('',(1.,0.,0.));
#502=DIRECTION('',(0.,0.,-1.));
#503=DIRECTION('',(-1.,0.,0.));
#504=DIRECTION('',(0.,0.,-1.));
#505=DIRECTION('',(-1.,0.,-2.85385167975303E-16));
#506=DIRECTION('',(0.,0.,1.));
#507=DIRECTION('',(1.,0.,0.));
#508=DIRECTION('',(0.,0.,-1.));
#509=DIRECTION('',(1.,0.,0.));
#510=DIRECTION('',(0.,0.,-1.));
#511=DIRECTION('',(-1.,0.,0.));
#512=DIRECTION('',(0.,0.,1.));
#513=DIRECTION('',(-1.,0.,0.));
#514=DIRECTION('',(0.,0.,1.));
#515=DIRECTION('',(1.,0.,2.72380526159265E-17));
#516=DIRECTION('',(0.,0.,-1.));
#517=DIRECTION('',(-1.,0.,0.));
#518=DIRECTION('',(0.,0.,1.));
#519=DIRECTION('',(1.,0.,0.));
#520=DIRECTION('',(0.,0.,1.));
#521=DIRECTION('',(1.,0.,0.));
#522=DIRECTION('',(0.,0.,1.));
#523=DIRECTION('',(-1.,0.,0.));
#524=DIRECTION('',(0.,0.,1.));
#525=DIRECTION('',(1.,0.,0.));
#526=DIRECTION('',(0.,0.,-1.));
#527=DIRECTION('',(-1.,0.,0.));
#528=DIRECTION('',(0.,0.,1.));
#529=DIRECTION('',(1.,0.,0.));
#530=DIRECTION('',(0.,0.,1.));
#531=DIRECTION('',(1.,0.,0.));
#532=DIRECTION('',(0.,0.,1.));
#533=DIRECTION('',(1.,0.,0.));
#534=DIRECTION('',(0.,0.,1.));
#535=DIRECTION('',(1.,0.,0.));
#536=DIRECTION('',(0.,0.,-1.));
#537=DIRECTION('',(-1.,0.,0.));
#538=DIRECTION('',(0.,0.,-1.));
#539=DIRECTION('',(-1.,0.,0.));
#540=DIRECTION('',(0.,0.,-1.));
#541=DIRECTION('',(-1.,0.,4.7526561849124E-16));
#542=DIRECTION('',(0.,0.,-1.));
#543=DIRECTION('',(1.,0.,0.));
#544=DIRECTION('',(0.,0.,-1.));
#545=DIRECTION('',(1.,0.,0.));
#546=DIRECTION('',(0.,0.,-1.));
#547=DIRECTION('',(-1.,0.,0.));
#548=DIRECTION('',(0.,0.,-1.));
#549=DIRECTION('',(1.,0.,0.));
#550=DIRECTION('',(0.,0.,1.));
#551=DIRECTION('',(1.,0.,0.));
#552=DIRECTION('',(0.,0.,-1.));
#553=DIRECTION('',(1.,0.,0.));
#554=DIRECTION('',(0.,0.,1.));
#555=DIRECTION('',(1.,0.,0.));
#556=DIRECTION('',(0.,0.,-1.));
#557=DIRECTION('',(1.,0.,0.));
#558=DIRECTION('',(0.,0.,1.));
#559=DIRECTION('',(1.,0.,0.));
#560=DIRECTION('',(0.,0.,-1.));
#561=DIRECTION('',(-1.,0.,0.));
#562=DIRECTION('',(0.,0.,-1.));
#563=DIRECTION('',(-1.,0.,-2.85385167975303E-16));
#564=DIRECTION('',(0.,0.,1.));
#565=DIRECTION('',(1.,0.,0.));
#566=DIRECTION('',(0.,0.,-1.));
#567=DIRECTION('',(1.,0.,0.));
#568=DIRECTION('',(0.,0.,-1.));
#569=DIRECTION('',(-1.,0.,0.));
#570=DIRECTION('',(0.,0.,1.));
#571=DIRECTION('',(-1.,0.,0.));
#572=DIRECTION('',(0.,0.,1.));
#573=DIRECTION('',(1.,0.,2.72380526159265E-17));
#574=DIRECTION('',(0.,0.,-1.));
#575=DIRECTION('',(-1.,0.,0.));
#576=DIRECTION('',(0.,0.,1.));
#577=DIRECTION('',(1.,0.,0.));
#578=CARTESIAN_POINT('',(0.,0.,0.));
#579=CARTESIAN_POINT('',(0.,0.,0.));
#580=CARTESIAN_POINT('',(0.,0.,0.));
#581=CARTESIAN_POINT('',(0.,0.,0.));
#582=CARTESIAN_POINT('',(0.,0.,-100.));
#583=CARTESIAN_POINT('',(0.,0.,0.));
#584=CARTESIAN_POINT('',(0.,0.,-29.));
#585=CARTESIAN_POINT('',(-32.,0.,-29.));
#586=CARTESIAN_POINT('',(0.,0.,-29.));
#587=CARTESIAN_POINT('',(50.,0.,-29.));
#588=CARTESIAN_POINT('',(-50.,0.,-29.));
#589=CARTESIAN_POINT('',(0.,0.,0.));
#590=CARTESIAN_POINT('',(38.001002004008,0.,0.));
#591=CARTESIAN_POINT('',(0.,0.,0.));
#592=CARTESIAN_POINT('',(50.,0.,0.));
#593=CARTESIAN_POINT('',(0.,0.,0.));
#594=CARTESIAN_POINT('',(0.,0.,20.9080749503476));
#595=CARTESIAN_POINT('',(0.,0.,50.));
#596=CARTESIAN_POINT('',(-35.4959919839679,0.,50.));
#597=CARTESIAN_POINT('',(0.,0.,50.));
#598=CARTESIAN_POINT('',(0.,0.,9.99999999999997));
#599=CARTESIAN_POINT('',(0.,0.,-28.95));
#600=CARTESIAN_POINT('',(29.8,0.,-28.95));
#601=CARTESIAN_POINT('',(0.,0.,-28.95));
#602=CARTESIAN_POINT('',(32.,0.,-28.95));
#603=CARTESIAN_POINT('',(-32.,0.,-28.95));
#604=CARTESIAN_POINT('',(0.,0.,-34.95));
#605=CARTESIAN_POINT('',(23.8,0.,-34.95));
#606=CARTESIAN_POINT('',(0.,0.,-34.95));
#607=CARTESIAN_POINT('',(0.,0.,-36.1245983399338));
#608=CARTESIAN_POINT('',(23.8,0.,-36.1245983399338));
#609=CARTESIAN_POINT('',(0.,0.,20.9080749503476));
#610=CARTESIAN_POINT('',(0.,0.,-36.2798897669953));
#611=CARTESIAN_POINT('',(23.8204445042266,0.,-36.2798897669953));
#612=CARTESIAN_POINT('',(0.,0.,-36.1245983399338));
#613=CARTESIAN_POINT('',(0.,0.,-36.95));
#614=CARTESIAN_POINT('',(-24.,0.,-36.95));
#615=CARTESIAN_POINT('',(0.,0.,-36.2798897669953));
#616=CARTESIAN_POINT('',(0.,0.,20.9080749503476));
#617=CARTESIAN_POINT('',(0.,0.,-95.));
#618=CARTESIAN_POINT('',(24.,0.,-95.));
#619=CARTESIAN_POINT('',(0.,0.,20.9080749503476));
#620=CARTESIAN_POINT('',(0.,0.,-100.));
#621=CARTESIAN_POINT('',(-19.,0.,-100.));
#622=CARTESIAN_POINT('',(0.,0.,-100.));
#623=CARTESIAN_POINT('',(0.,0.,-100.));
#624=CARTESIAN_POINT('',(0.,0.,0.));
#625=CARTESIAN_POINT('',(0.,0.,0.));
#626=CARTESIAN_POINT('',(0.,0.,0.));
#627=CARTESIAN_POINT('',(0.,0.,-29.));
#628=CARTESIAN_POINT('',(-32.,0.,-29.));
#629=CARTESIAN_POINT('',(0.,0.,-29.));
#630=CARTESIAN_POINT('',(50.,0.,-29.));
#631=CARTESIAN_POINT('',(-50.,0.,-29.));
#632=CARTESIAN_POINT('',(0.,0.,0.));
#633=CARTESIAN_POINT('',(38.001002004008,0.,0.));
#634=CARTESIAN_POINT('',(0.,0.,0.));
#635=CARTESIAN_POINT('',(50.,0.,0.));
#636=CARTESIAN_POINT('',(0.,0.,0.));
#637=CARTESIAN_POINT('',(0.,0.,20.9080749503476));
#638=CARTESIAN_POINT('',(0.,0.,50.));
#639=CARTESIAN_POINT('',(-35.4959919839679,0.,50.));
#640=CARTESIAN_POINT('',(0.,0.,50.));
#641=CARTESIAN_POINT('',(0.,0.,9.99999999999997));
#642=CARTESIAN_POINT('',(0.,0.,-28.95));
#643=CARTESIAN_POINT('',(29.8,0.,-28.95));
#644=CARTESIAN_POINT('',(0.,0.,-28.95));
#645=CARTESIAN_POINT('',(32.,0.,-28.95));
#646=CARTESIAN_POINT('',(-32.,0.,-28.95));
#647=CARTESIAN_POINT('',(0.,0.,-34.95));
#648=CARTESIAN_POINT('',(23.8,0.,-34.95));
#649=CARTESIAN_POINT('',(0.,0.,-34.95));
#650=CARTESIAN_POINT('',(0.,0.,-36.1245983399338));
#651=CARTESIAN_POINT('',(23.8,0.,-36.1245983399338));
#652=CARTESIAN_POINT('',(0.,0.,20.9080749503476));
#653=CARTESIAN_POINT('',(0.,0.,-36.2798897669953));
#654=CARTESIAN_POINT('',(23.8204445042266,0.,-36.2798897669953));
#655=CARTESIAN_POINT('',(0.,0.,-36.1245983399338));
#656=CARTESIAN_POINT('',(0.,0.,-36.95));
#657=CARTESIAN_POINT('',(-24.,0.,-36.95));
#658=CARTESIAN_POINT('',(0.,0.,-36.2798897669953));
#659=CARTESIAN_POINT('',(0.,0.,20.9080749503476));
#660=CARTESIAN_POINT('',(0.,0.,-95.));
#661=CARTESIAN_POINT('',(24.,0.,-95.));
#662=CARTESIAN_POINT('',(0.,0.,20.9080749503476));
#663=CARTESIAN_POINT('',(0.,0.,-100.));
#664=CARTESIAN_POINT('',(-19.,0.,-100.));
#665=CARTESIAN_POINT('',(0.,0.,-100.));
#666=CARTESIAN_POINT('',(0.,0.,-100.));
#667=CARTESIAN_POINT('',(0.,0.,0.));
#668=MECHANICAL_DESIGN_GEOMETRIC_PRESENTATION_REPRESENTATION('',(#364,#365,
#366,#367,#368,#369),#670);
#669=MECHANICAL_DESIGN_GEOMETRIC_PRESENTATION_REPRESENTATION('',(#370,#371,
#372,#373),#671);
#670=(
GEOMETRIC_REPRESENTATION_CONTEXT(3)
GLOBAL_UNCERTAINTY_ASSIGNED_CONTEXT((#672))
GLOBAL_UNIT_ASSIGNED_CONTEXT((#679,#675,#674))
REPRESENTATION_CONTEXT('TOOLCOMP_1','TOP_LEVEL_ASSEMBLY_PART')
);
#671=(
GEOMETRIC_REPRESENTATION_CONTEXT(3)
GLOBAL_UNCERTAINTY_ASSIGNED_CONTEXT((#673))
GLOBAL_UNIT_ASSIGNED_CONTEXT((#679,#675,#674))
REPRESENTATION_CONTEXT('NOCUT_COMP20240604103428','COMPONENT_PART')
);
#672=UNCERTAINTY_MEASURE_WITH_UNIT(LENGTH_MEASURE(2.E-5),#679,
'DISTANCE_ACCURACY_VALUE','Maximum Tolerance applied to model');
#673=UNCERTAINTY_MEASURE_WITH_UNIT(LENGTH_MEASURE(2.E-5),#679,
'DISTANCE_ACCURACY_VALUE','Maximum Tolerance applied to model');
#674=(
NAMED_UNIT(*)
SI_UNIT($,.STERADIAN.)
SOLID_ANGLE_UNIT()
);
#675=(
CONVERSION_BASED_UNIT('DEGREE',#677)
NAMED_UNIT(#676)
PLANE_ANGLE_UNIT()
);
#676=DIMENSIONAL_EXPONENTS(0.,0.,0.,0.,0.,0.,0.);
#677=PLANE_ANGLE_MEASURE_WITH_UNIT(PLANE_ANGLE_MEASURE(0.0174532925),#678);
#678=(
NAMED_UNIT(*)
PLANE_ANGLE_UNIT()
SI_UNIT($,.RADIAN.)
);
#679=(
LENGTH_UNIT()
NAMED_UNIT(*)
SI_UNIT(.MILLI.,.METRE.)
);
ENDSEC;
END-ISO-10303-21;
