ISO-10303-21;
HEADER;
/* Generated by software containing ST-Developer
 * from STEP Tools, Inc. (www.steptools.com) 
 */
/* OPTION: using custom schema-name function */

FILE_DESCRIPTION(
/* description */ (''),
/* implementation_level */ '2;1');

FILE_NAME(
/* name */ 'TOOL.STP',
/* time_stamp */ '2023-08-22T08:32:28+02:00',
/* author */ (''),
/* organization */ ('SMS'),
/* preprocessor_version */ 'ST-DEVELOPER v16.7',
/* originating_system */ 'SIEMENS PLM Software NX 12.0',
/* authorisation */ '');

FILE_SCHEMA (('AUTOMOTIVE_DESIGN { 1 0 10303 214 3 1 1 1 }'));
ENDSEC;

DATA;
#10=CONSTRUCTIVE_GEOMETRY_REPRESENTATION_RELATIONSHIP(
'supplemental geometry','',#26,#11);
#11=CONSTRUCTIVE_GEOMETRY_REPRESENTATION('supplemental geometry',(#145,
#146,#147),#231);
#12=GEOMETRICALLY_BOUNDED_WIREFRAME_SHAPE_REPRESENTATION('Tool-None',(#27),
#231);
#13=SHAPE_REPRESENTATION_RELATIONSHIP('None',
'relationship between Tool-None and Tool-None',#26,#15);
#14=SHAPE_REPRESENTATION_RELATIONSHIP('None',
'relationship between Tool-None and Tool-None',#26,#12);
#15=ADVANCED_BREP_SHAPE_REPRESENTATION('Tool-None',(#39,#40),#231);
#16=SHAPE_DEFINITION_REPRESENTATION(#17,#26);
#17=PRODUCT_DEFINITION_SHAPE('','',#18);
#18=PRODUCT_DEFINITION(' ','',#20,#19);
#19=PRODUCT_DEFINITION_CONTEXT('part definition',#25,'design');
#20=PRODUCT_DEFINITION_FORMATION_WITH_SPECIFIED_SOURCE(' ',' ',#22,
 .NOT_KNOWN.);
#21=PRODUCT_RELATED_PRODUCT_CATEGORY('part','',(#22));
#22=PRODUCT('Tool','Tool',' ',(#23));
#23=PRODUCT_CONTEXT(' ',#25,'mechanical');
#24=APPLICATION_PROTOCOL_DEFINITION('international standard',
'automotive_design',2010,#25);
#25=APPLICATION_CONTEXT(
'core data for automotive mechanical design processes');
#26=SHAPE_REPRESENTATION('Tool-None',(#144),#231);
#27=GEOMETRIC_CURVE_SET('None',(#193,#194,#195,#112));
#28=VERTEX_LOOP('',#93);
#29=SURFACE_STYLE_USAGE(.BOTH.,#31);
#30=SURFACE_STYLE_USAGE(.BOTH.,#32);
#31=SURFACE_SIDE_STYLE('',(#33));
#32=SURFACE_SIDE_STYLE('',(#34));
#33=SURFACE_STYLE_FILL_AREA(#35);
#34=SURFACE_STYLE_FILL_AREA(#36);
#35=FILL_AREA_STYLE('',(#37));
#36=FILL_AREA_STYLE('',(#38));
#37=FILL_AREA_STYLE_COLOUR('',#142);
#38=FILL_AREA_STYLE_COLOUR('',#143);
#39=MANIFOLD_SOLID_BREP('NOCUT',#41);
#40=MANIFOLD_SOLID_BREP('CUT',#42);
#41=CLOSED_SHELL('',(#51,#52,#53,#54));
#42=CLOSED_SHELL('',(#55,#56,#57));
#43=CONICAL_SURFACE('',#153,8.,45.);
#44=CONICAL_SURFACE('',#159,1.77635683940025E-15,70.);
#45=PLANE('',#152);
#46=PLANE('',#154);
#47=PLANE('',#156);
#48=FACE_OUTER_BOUND('',#70,.T.);
#49=FACE_OUTER_BOUND('',#73,.T.);
#50=FACE_OUTER_BOUND('',#74,.T.);
#51=ADVANCED_FACE('',(#60,#61),#58,.T.);
#52=ADVANCED_FACE('',(#48),#45,.T.);
#53=ADVANCED_FACE('',(#62,#63),#43,.T.);
#54=ADVANCED_FACE('',(#49),#46,.T.);
#55=ADVANCED_FACE('',(#50),#47,.T.);
#56=ADVANCED_FACE('',(#64,#65),#59,.T.);
#57=ADVANCED_FACE('',(#66,#67),#44,.T.);
#58=CYLINDRICAL_SURFACE('',#150,8.);
#59=CYLINDRICAL_SURFACE('',#158,8.);
#60=FACE_BOUND('',#68,.T.);
#61=FACE_BOUND('',#69,.T.);
#62=FACE_BOUND('',#71,.T.);
#63=FACE_BOUND('',#72,.T.);
#64=FACE_BOUND('',#75,.T.);
#65=FACE_BOUND('',#76,.T.);
#66=FACE_BOUND('',#77,.T.);
#67=FACE_BOUND('',#28,.T.);
#68=EDGE_LOOP('',(#78));
#69=EDGE_LOOP('',(#79));
#70=EDGE_LOOP('',(#80));
#71=EDGE_LOOP('',(#81));
#72=EDGE_LOOP('',(#82));
#73=EDGE_LOOP('',(#83));
#74=EDGE_LOOP('',(#84));
#75=EDGE_LOOP('',(#85));
#76=EDGE_LOOP('',(#86));
#77=EDGE_LOOP('',(#87));
#78=ORIENTED_EDGE('',*,*,#94,.T.);
#79=ORIENTED_EDGE('',*,*,#95,.T.);
#80=ORIENTED_EDGE('',*,*,#96,.F.);
#81=ORIENTED_EDGE('',*,*,#96,.T.);
#82=ORIENTED_EDGE('',*,*,#94,.F.);
#83=ORIENTED_EDGE('',*,*,#95,.F.);
#84=ORIENTED_EDGE('',*,*,#97,.F.);
#85=ORIENTED_EDGE('',*,*,#98,.T.);
#86=ORIENTED_EDGE('',*,*,#97,.T.);
#87=ORIENTED_EDGE('',*,*,#98,.F.);
#88=VERTEX_POINT('',#213);
#89=VERTEX_POINT('',#215);
#90=VERTEX_POINT('',#218);
#91=VERTEX_POINT('',#223);
#92=VERTEX_POINT('',#226);
#93=VERTEX_POINT('',#228);
#94=EDGE_CURVE('',#88,#88,#99,.T.);
#95=EDGE_CURVE('',#89,#89,#100,.T.);
#96=EDGE_CURVE('',#90,#90,#101,.T.);
#97=EDGE_CURVE('',#91,#91,#102,.T.);
#98=EDGE_CURVE('',#92,#92,#103,.T.);
#99=CIRCLE('',#148,8.);
#100=CIRCLE('',#149,8.);
#101=CIRCLE('',#151,5.55);
#102=CIRCLE('',#155,8.);
#103=CIRCLE('',#157,8.00000000000001);
#104=CURVE_STYLE('',#108,POSITIVE_LENGTH_MEASURE(0.18),#114);
#105=CURVE_STYLE('',#109,POSITIVE_LENGTH_MEASURE(0.13),#141);
#106=CURVE_STYLE('',#110,POSITIVE_LENGTH_MEASURE(0.18),#140);
#107=CURVE_STYLE('',#111,POSITIVE_LENGTH_MEASURE(0.18),#140);
#108=DRAUGHTING_PRE_DEFINED_CURVE_FONT('continuous');
#109=DRAUGHTING_PRE_DEFINED_CURVE_FONT('continuous');
#110=DRAUGHTING_PRE_DEFINED_CURVE_FONT('continuous');
#111=DRAUGHTING_PRE_DEFINED_CURVE_FONT('continuous');
#112=B_SPLINE_CURVE_WITH_KNOTS('CUTTING PART LINE',3,(#196,#197,#198,#199,
#200,#201,#202,#203,#204,#205,#206,#207,#208),.UNSPECIFIED.,.T.,.F.,(4,
3,3,3,4),(0.,0.0787388707610993,0.511802659951574,0.595594816046365,1.),
 .UNSPECIFIED.);
#113=DRAUGHTING_PRE_DEFINED_COLOUR('white');
#114=DRAUGHTING_PRE_DEFINED_COLOUR('blue');
#115=PRESENTATION_LAYER_ASSIGNMENT('1','Layer 1',(#193,#194,#195,#112,#145,
#146,#147,#39,#40));
#116=STYLED_ITEM('',(#125),#193);
#117=STYLED_ITEM('',(#126),#194);
#118=STYLED_ITEM('',(#127),#195);
#119=STYLED_ITEM('',(#128),#112);
#120=STYLED_ITEM('',(#129),#145);
#121=STYLED_ITEM('',(#130),#146);
#122=STYLED_ITEM('',(#131),#147);
#123=STYLED_ITEM('',(#132),#39);
#124=STYLED_ITEM('',(#133),#40);
#125=PRESENTATION_STYLE_ASSIGNMENT((#134));
#126=PRESENTATION_STYLE_ASSIGNMENT((#135));
#127=PRESENTATION_STYLE_ASSIGNMENT((#136));
#128=PRESENTATION_STYLE_ASSIGNMENT((#104));
#129=PRESENTATION_STYLE_ASSIGNMENT((#105));
#130=PRESENTATION_STYLE_ASSIGNMENT((#106));
#131=PRESENTATION_STYLE_ASSIGNMENT((#107));
#132=PRESENTATION_STYLE_ASSIGNMENT((#29));
#133=PRESENTATION_STYLE_ASSIGNMENT((#30));
#134=POINT_STYLE('',#137,POSITIVE_LENGTH_MEASURE(3.),#140);
#135=POINT_STYLE('',#138,POSITIVE_LENGTH_MEASURE(3.),#113);
#136=POINT_STYLE('',#139,POSITIVE_LENGTH_MEASURE(3.),#140);
#137=PRE_DEFINED_POINT_MARKER_SYMBOL('plus');
#138=PRE_DEFINED_POINT_MARKER_SYMBOL('plus');
#139=PRE_DEFINED_POINT_MARKER_SYMBOL('plus');
#140=COLOUR_RGB('Medium Maroon',0.6,0.4,0.4);
#141=COLOUR_RGB('Silver Gray',0.6,0.6,0.6);
#142=COLOUR_RGB('TLS_NOCUT',0.498023956664378,0.498023956664378,0.498023956664378);
#143=COLOUR_RGB('TLS_CUT',0.8,0.8,0.8);
#144=AXIS2_PLACEMENT_3D('',#192,#160,#161);
#145=AXIS2_PLACEMENT_3D('PCS',#209,#162,#163);
#146=AXIS2_PLACEMENT_3D('MCS',#210,#164,#165);
#147=AXIS2_PLACEMENT_3D('CIP',#211,#166,#167);
#148=AXIS2_PLACEMENT_3D('',#212,#168,#169);
#149=AXIS2_PLACEMENT_3D('',#214,#170,#171);
#150=AXIS2_PLACEMENT_3D('',#216,#172,#173);
#151=AXIS2_PLACEMENT_3D('',#217,#174,#175);
#152=AXIS2_PLACEMENT_3D('',#219,#176,#177);
#153=AXIS2_PLACEMENT_3D('',#220,#178,#179);
#154=AXIS2_PLACEMENT_3D('',#221,#180,#181);
#155=AXIS2_PLACEMENT_3D('',#222,#182,#183);
#156=AXIS2_PLACEMENT_3D('',#224,#184,#185);
#157=AXIS2_PLACEMENT_3D('',#225,#186,#187);
#158=AXIS2_PLACEMENT_3D('',#227,#188,#189);
#159=AXIS2_PLACEMENT_3D('',#229,#190,#191);
#160=DIRECTION('',(0.,0.,1.));
#161=DIRECTION('',(1.,0.,0.));
#162=DIRECTION('',(0.,0.,1.));
#163=DIRECTION('',(1.,0.,0.));
#164=DIRECTION('',(0.,0.,1.));
#165=DIRECTION('',(1.,0.,0.));
#166=DIRECTION('',(0.,0.,1.));
#167=DIRECTION('',(1.,0.,0.));
#168=DIRECTION('',(0.,0.,-1.));
#169=DIRECTION('',(-1.,0.,0.));
#170=DIRECTION('',(0.,0.,1.));
#171=DIRECTION('',(-1.,0.,0.));
#172=DIRECTION('',(0.,0.,-1.));
#173=DIRECTION('',(-1.,0.,0.));
#174=DIRECTION('',(0.,0.,-1.));
#175=DIRECTION('',(-1.,0.,0.));
#176=DIRECTION('',(0.,0.,1.));
#177=DIRECTION('',(1.,0.,0.));
#178=DIRECTION('',(0.,0.,-1.));
#179=DIRECTION('',(-1.,0.,-5.85124981976305E-17));
#180=DIRECTION('',(0.,0.,-1.));
#181=DIRECTION('',(-1.,0.,0.));
#182=DIRECTION('',(0.,0.,-1.));
#183=DIRECTION('',(1.,0.,0.));
#184=DIRECTION('',(0.,0.,1.));
#185=DIRECTION('',(1.,0.,0.));
#186=DIRECTION('',(0.,0.,1.));
#187=DIRECTION('',(1.,0.,0.));
#188=DIRECTION('',(0.,0.,-1.));
#189=DIRECTION('',(-1.,0.,0.));
#190=DIRECTION('',(0.,0.,1.));
#191=DIRECTION('',(1.,0.,5.05110167950687E-18));
#192=CARTESIAN_POINT('',(0.,0.,0.));
#193=CARTESIAN_POINT('',(0.,0.,-48.));
#194=CARTESIAN_POINT('CRP',(-8.,0.,-112.088));
#195=CARTESIAN_POINT('CIP_DCSYS',(0.,0.,-115.));
#196=CARTESIAN_POINT('',(-8.,0.,-71.));
#197=CARTESIAN_POINT('',(-5.33333333333333,0.,-71.));
#198=CARTESIAN_POINT('',(-2.66666666666667,0.,-71.));
#199=CARTESIAN_POINT('',(0.,0.,-71.));
#200=CARTESIAN_POINT('',(0.,0.,-85.6666666666667));
#201=CARTESIAN_POINT('',(0.,0.,-100.333333333333));
#202=CARTESIAN_POINT('',(-3.2147391735942E-15,0.,-115.));
#203=CARTESIAN_POINT('',(-2.66666666666667,0.,-114.029412708623));
#204=CARTESIAN_POINT('',(-5.33333333333334,0.,-113.058825417247));
#205=CARTESIAN_POINT('',(-8.,0.,-112.08823812587));
#206=CARTESIAN_POINT('',(-8.,0.,-98.3921587505803));
#207=CARTESIAN_POINT('',(-8.,0.,-84.6960793752902));
#208=CARTESIAN_POINT('',(-8.,0.,-71.));
#209=CARTESIAN_POINT('',(0.,0.,0.));
#210=CARTESIAN_POINT('',(0.,0.,-48.));
#211=CARTESIAN_POINT('',(0.,0.,-115.));
#212=CARTESIAN_POINT('',(0.,0.,-2.45));
#213=CARTESIAN_POINT('',(-8.,0.,-2.45));
#214=CARTESIAN_POINT('',(0.,0.,-71.));
#215=CARTESIAN_POINT('',(-8.,0.,-71.));
#216=CARTESIAN_POINT('',(0.,0.,20.9080749503476));
#217=CARTESIAN_POINT('',(0.,0.,0.));
#218=CARTESIAN_POINT('',(-5.55,0.,0.));
#219=CARTESIAN_POINT('',(-5.55,0.,2.22044604925031E-16));
#220=CARTESIAN_POINT('',(0.,0.,-2.45));
#221=CARTESIAN_POINT('',(0.,0.,-71.));
#222=CARTESIAN_POINT('',(0.,0.,-71.));
#223=CARTESIAN_POINT('',(8.,0.,-71.));
#224=CARTESIAN_POINT('',(0.,0.,-71.));
#225=CARTESIAN_POINT('',(0.,-1.77635683940025E-15,-112.08823812587));
#226=CARTESIAN_POINT('',(8.00000000000001,-1.77635683940025E-15,-112.08823812587));
#227=CARTESIAN_POINT('',(0.,0.,20.9080749503476));
#228=CARTESIAN_POINT('',(0.,0.,-115.));
#229=CARTESIAN_POINT('',(0.,-1.77635683940025E-15,-115.));
#230=MECHANICAL_DESIGN_GEOMETRIC_PRESENTATION_REPRESENTATION('',(#116,#117,
#118,#119,#120,#121,#122,#123,#124),#231);
#231=(
GEOMETRIC_REPRESENTATION_CONTEXT(3)
GLOBAL_UNCERTAINTY_ASSIGNED_CONTEXT((#232))
GLOBAL_UNIT_ASSIGNED_CONTEXT((#238,#234,#233))
REPRESENTATION_CONTEXT('TOOL','TOP_LEVEL_ASSEMBLY_PART')
);
#232=UNCERTAINTY_MEASURE_WITH_UNIT(LENGTH_MEASURE(2.E-5),#238,
'DISTANCE_ACCURACY_VALUE','Maximum Tolerance applied to model');
#233=(
NAMED_UNIT(*)
SI_UNIT($,.STERADIAN.)
SOLID_ANGLE_UNIT()
);
#234=(
CONVERSION_BASED_UNIT('DEGREE',#236)
NAMED_UNIT(#235)
PLANE_ANGLE_UNIT()
);
#235=DIMENSIONAL_EXPONENTS(0.,0.,0.,0.,0.,0.,0.);
#236=PLANE_ANGLE_MEASURE_WITH_UNIT(PLANE_ANGLE_MEASURE(0.0174532925),#237);
#237=(
NAMED_UNIT(*)
PLANE_ANGLE_UNIT()
SI_UNIT($,.RADIAN.)
);
#238=(
LENGTH_UNIT()
NAMED_UNIT(*)
SI_UNIT(.MILLI.,.METRE.)
);
ENDSEC;
END-ISO-10303-21;
