ISO-10303-21;
HEADER;
/* Generated by software containing ST-Developer
 * from STEP Tools, Inc. (www.steptools.com) 
 */
/* OPTION: using custom schema-name function */

FILE_DESCRIPTION(
/* description */ (''),
/* implementation_level */ '2;1');

FILE_NAME(
/* name */ 'TOOL.STP',
/* time_stamp */ '2023-03-20T04:46:52+01:00',
/* author */ (''),
/* organization */ ('SMS'),
/* preprocessor_version */ 'ST-DEVELOPER v16.7',
/* originating_system */ 'SIEMENS PLM Software NX 12.0',
/* authorisation */ '');

FILE_SCHEMA (('AUTOMOTIVE_DESIGN { 1 0 10303 214 3 1 1 1 }'));
ENDSEC;

DATA;
#10=CONSTRUCTIVE_GEOMETRY_REPRESENTATION_RELATIONSHIP(
'supplemental geometry','',#26,#11);
#11=CONSTRUCTIVE_GEOMETRY_REPRESENTATION('supplemental geometry',(#254,
#255,#256),#428);
#12=GEOMETRICALLY_BOUNDED_WIREFRAME_SHAPE_REPRESENTATION('Tool-None',(#27),
#428);
#13=SHAPE_REPRESENTATION_RELATIONSHIP('None',
'relationship between Tool-None and Tool-None',#26,#15);
#14=SHAPE_REPRESENTATION_RELATIONSHIP('None',
'relationship between Tool-None and Tool-None',#26,#12);
#15=ADVANCED_BREP_SHAPE_REPRESENTATION('Tool-None',(#38,#39),#428);
#16=SHAPE_DEFINITION_REPRESENTATION(#17,#26);
#17=PRODUCT_DEFINITION_SHAPE('','',#18);
#18=PRODUCT_DEFINITION(' ','',#20,#19);
#19=PRODUCT_DEFINITION_CONTEXT('part definition',#25,'design');
#20=PRODUCT_DEFINITION_FORMATION_WITH_SPECIFIED_SOURCE(' ',' ',#22,
 .NOT_KNOWN.);
#21=PRODUCT_RELATED_PRODUCT_CATEGORY('part','',(#22));
#22=PRODUCT('Tool','Tool',' ',(#23));
#23=PRODUCT_CONTEXT(' ',#25,'mechanical');
#24=APPLICATION_PROTOCOL_DEFINITION('international standard',
'automotive_design',2010,#25);
#25=APPLICATION_CONTEXT(
'core data for automotive mechanical design processes');
#26=SHAPE_REPRESENTATION('Tool-None',(#253),#428);
#27=GEOMETRIC_CURVE_SET('None',(#357,#358,#359,#221));
#28=SURFACE_STYLE_USAGE(.BOTH.,#30);
#29=SURFACE_STYLE_USAGE(.BOTH.,#31);
#30=SURFACE_SIDE_STYLE('',(#32));
#31=SURFACE_SIDE_STYLE('',(#33));
#32=SURFACE_STYLE_FILL_AREA(#34);
#33=SURFACE_STYLE_FILL_AREA(#35);
#34=FILL_AREA_STYLE('',(#36));
#35=FILL_AREA_STYLE('',(#37));
#36=FILL_AREA_STYLE_COLOUR('',#251);
#37=FILL_AREA_STYLE_COLOUR('',#252);
#38=MANIFOLD_SOLID_BREP('NOCUT',#40);
#39=MANIFOLD_SOLID_BREP('CUT',#41);
#40=CLOSED_SHELL('',(#62,#63,#64,#65,#66,#67,#68,#69,#70,#71,#72,#73));
#41=CLOSED_SHELL('',(#74,#75,#76,#77));
#42=PLANE('',#273);
#43=PLANE('',#275);
#44=PLANE('',#276);
#45=PLANE('',#277);
#46=PLANE('',#278);
#47=PLANE('',#280);
#48=PLANE('',#285);
#49=FACE_OUTER_BOUND('',#123,.T.);
#50=FACE_OUTER_BOUND('',#126,.T.);
#51=FACE_OUTER_BOUND('',#127,.T.);
#52=FACE_OUTER_BOUND('',#128,.T.);
#53=FACE_OUTER_BOUND('',#129,.T.);
#54=FACE_OUTER_BOUND('',#130,.T.);
#55=FACE_OUTER_BOUND('',#135,.T.);
#56=TOROIDAL_SURFACE('',#270,5.8,1.);
#57=TOROIDAL_SURFACE('',#271,5.8,1.);
#58=CONICAL_SURFACE('',#263,4.8,30.0000000000002);
#59=CONICAL_SURFACE('',#266,5.,30.0000000000004);
#60=CONICAL_SURFACE('',#274,4.4,45.);
#61=CONICAL_SURFACE('',#284,5.,44.9999999999993);
#62=ADVANCED_FACE('',(#91,#92,#93),#78,.T.);
#63=ADVANCED_FACE('',(#94,#95),#58,.T.);
#64=ADVANCED_FACE('',(#96,#97),#59,.T.);
#65=ADVANCED_FACE('',(#98,#99),#79,.T.);
#66=ADVANCED_FACE('',(#100,#101),#56,.F.);
#67=ADVANCED_FACE('',(#102,#103),#57,.F.);
#68=ADVANCED_FACE('',(#49),#42,.F.);
#69=ADVANCED_FACE('',(#104,#105),#60,.T.);
#70=ADVANCED_FACE('',(#50),#43,.T.);
#71=ADVANCED_FACE('',(#51),#44,.T.);
#72=ADVANCED_FACE('',(#52),#45,.T.);
#73=ADVANCED_FACE('',(#53),#46,.T.);
#74=ADVANCED_FACE('',(#54),#47,.T.);
#75=ADVANCED_FACE('',(#106,#107),#80,.T.);
#76=ADVANCED_FACE('',(#108,#109),#61,.T.);
#77=ADVANCED_FACE('',(#55),#48,.F.);
#78=CYLINDRICAL_SURFACE('',#261,5.);
#79=CYLINDRICAL_SURFACE('',#269,4.8);
#80=CYLINDRICAL_SURFACE('',#282,5.);
#81=LINE('',#386,#85);
#82=LINE('',#390,#86);
#83=LINE('',#411,#87);
#84=LINE('',#413,#88);
#85=VECTOR('',#300,1.);
#86=VECTOR('',#303,1.);
#87=VECTOR('',#332,1.);
#88=VECTOR('',#335,1.);
#89=ELLIPSE('',#259,7.07106781186547,5.);
#90=ELLIPSE('',#260,7.07106781186549,5.);
#91=FACE_BOUND('',#110,.T.);
#92=FACE_BOUND('',#111,.T.);
#93=FACE_BOUND('',#112,.T.);
#94=FACE_BOUND('',#113,.T.);
#95=FACE_BOUND('',#114,.T.);
#96=FACE_BOUND('',#115,.T.);
#97=FACE_BOUND('',#116,.T.);
#98=FACE_BOUND('',#117,.T.);
#99=FACE_BOUND('',#118,.T.);
#100=FACE_BOUND('',#119,.T.);
#101=FACE_BOUND('',#120,.T.);
#102=FACE_BOUND('',#121,.T.);
#103=FACE_BOUND('',#122,.T.);
#104=FACE_BOUND('',#124,.T.);
#105=FACE_BOUND('',#125,.T.);
#106=FACE_BOUND('',#131,.T.);
#107=FACE_BOUND('',#132,.T.);
#108=FACE_BOUND('',#133,.T.);
#109=FACE_BOUND('',#134,.T.);
#110=EDGE_LOOP('',(#136));
#111=EDGE_LOOP('',(#137));
#112=EDGE_LOOP('',(#138,#139,#140,#141));
#113=EDGE_LOOP('',(#142));
#114=EDGE_LOOP('',(#143));
#115=EDGE_LOOP('',(#144));
#116=EDGE_LOOP('',(#145));
#117=EDGE_LOOP('',(#146));
#118=EDGE_LOOP('',(#147));
#119=EDGE_LOOP('',(#148));
#120=EDGE_LOOP('',(#149));
#121=EDGE_LOOP('',(#150));
#122=EDGE_LOOP('',(#151));
#123=EDGE_LOOP('',(#152));
#124=EDGE_LOOP('',(#153));
#125=EDGE_LOOP('',(#154));
#126=EDGE_LOOP('',(#155,#156));
#127=EDGE_LOOP('',(#157,#158,#159,#160));
#128=EDGE_LOOP('',(#161,#162));
#129=EDGE_LOOP('',(#163));
#130=EDGE_LOOP('',(#164));
#131=EDGE_LOOP('',(#165));
#132=EDGE_LOOP('',(#166));
#133=EDGE_LOOP('',(#167));
#134=EDGE_LOOP('',(#168));
#135=EDGE_LOOP('',(#169));
#136=ORIENTED_EDGE('',*,*,#185,.T.);
#137=ORIENTED_EDGE('',*,*,#186,.T.);
#138=ORIENTED_EDGE('',*,*,#187,.F.);
#139=ORIENTED_EDGE('',*,*,#188,.F.);
#140=ORIENTED_EDGE('',*,*,#189,.F.);
#141=ORIENTED_EDGE('',*,*,#190,.F.);
#142=ORIENTED_EDGE('',*,*,#191,.T.);
#143=ORIENTED_EDGE('',*,*,#185,.F.);
#144=ORIENTED_EDGE('',*,*,#192,.T.);
#145=ORIENTED_EDGE('',*,*,#193,.F.);
#146=ORIENTED_EDGE('',*,*,#194,.T.);
#147=ORIENTED_EDGE('',*,*,#195,.T.);
#148=ORIENTED_EDGE('',*,*,#195,.F.);
#149=ORIENTED_EDGE('',*,*,#191,.F.);
#150=ORIENTED_EDGE('',*,*,#192,.F.);
#151=ORIENTED_EDGE('',*,*,#194,.F.);
#152=ORIENTED_EDGE('',*,*,#196,.T.);
#153=ORIENTED_EDGE('',*,*,#186,.F.);
#154=ORIENTED_EDGE('',*,*,#196,.F.);
#155=ORIENTED_EDGE('',*,*,#187,.T.);
#156=ORIENTED_EDGE('',*,*,#197,.F.);
#157=ORIENTED_EDGE('',*,*,#188,.T.);
#158=ORIENTED_EDGE('',*,*,#197,.T.);
#159=ORIENTED_EDGE('',*,*,#190,.T.);
#160=ORIENTED_EDGE('',*,*,#198,.F.);
#161=ORIENTED_EDGE('',*,*,#189,.T.);
#162=ORIENTED_EDGE('',*,*,#198,.T.);
#163=ORIENTED_EDGE('',*,*,#193,.T.);
#164=ORIENTED_EDGE('',*,*,#199,.T.);
#165=ORIENTED_EDGE('',*,*,#199,.F.);
#166=ORIENTED_EDGE('',*,*,#200,.T.);
#167=ORIENTED_EDGE('',*,*,#201,.T.);
#168=ORIENTED_EDGE('',*,*,#200,.F.);
#169=ORIENTED_EDGE('',*,*,#201,.F.);
#170=VERTEX_POINT('',#380);
#171=VERTEX_POINT('',#382);
#172=VERTEX_POINT('',#384);
#173=VERTEX_POINT('',#385);
#174=VERTEX_POINT('',#387);
#175=VERTEX_POINT('',#389);
#176=VERTEX_POINT('',#393);
#177=VERTEX_POINT('',#396);
#178=VERTEX_POINT('',#398);
#179=VERTEX_POINT('',#401);
#180=VERTEX_POINT('',#403);
#181=VERTEX_POINT('',#408);
#182=VERTEX_POINT('',#418);
#183=VERTEX_POINT('',#421);
#184=VERTEX_POINT('',#424);
#185=EDGE_CURVE('',#170,#170,#202,.T.);
#186=EDGE_CURVE('',#171,#171,#203,.T.);
#187=EDGE_CURVE('',#172,#173,#89,.T.);
#188=EDGE_CURVE('',#174,#172,#81,.T.);
#189=EDGE_CURVE('',#175,#174,#90,.T.);
#190=EDGE_CURVE('',#173,#175,#82,.T.);
#191=EDGE_CURVE('',#176,#176,#204,.T.);
#192=EDGE_CURVE('',#177,#177,#205,.T.);
#193=EDGE_CURVE('',#178,#178,#206,.T.);
#194=EDGE_CURVE('',#179,#179,#207,.T.);
#195=EDGE_CURVE('',#180,#180,#208,.T.);
#196=EDGE_CURVE('',#181,#181,#209,.T.);
#197=EDGE_CURVE('',#172,#173,#83,.T.);
#198=EDGE_CURVE('',#174,#175,#84,.T.);
#199=EDGE_CURVE('',#182,#182,#210,.T.);
#200=EDGE_CURVE('',#183,#183,#211,.T.);
#201=EDGE_CURVE('',#184,#184,#212,.T.);
#202=CIRCLE('',#257,5.);
#203=CIRCLE('',#258,5.);
#204=CIRCLE('',#262,4.93397459621556);
#205=CIRCLE('',#264,4.93397459621556);
#206=CIRCLE('',#265,5.);
#207=CIRCLE('',#267,4.8);
#208=CIRCLE('',#268,4.8);
#209=CIRCLE('',#272,4.4);
#210=CIRCLE('',#279,5.);
#211=CIRCLE('',#281,5.);
#212=CIRCLE('',#283,4.8);
#213=CURVE_STYLE('',#217,POSITIVE_LENGTH_MEASURE(0.18),#223);
#214=CURVE_STYLE('',#218,POSITIVE_LENGTH_MEASURE(0.13),#250);
#215=CURVE_STYLE('',#219,POSITIVE_LENGTH_MEASURE(0.18),#249);
#216=CURVE_STYLE('',#220,POSITIVE_LENGTH_MEASURE(0.18),#249);
#217=DRAUGHTING_PRE_DEFINED_CURVE_FONT('continuous');
#218=DRAUGHTING_PRE_DEFINED_CURVE_FONT('continuous');
#219=DRAUGHTING_PRE_DEFINED_CURVE_FONT('continuous');
#220=DRAUGHTING_PRE_DEFINED_CURVE_FONT('continuous');
#221=B_SPLINE_CURVE_WITH_KNOTS('CUTTING PART LINE',3,(#360,#361,#362,#363,
#364,#365,#366,#367,#368,#369,#370,#371,#372,#373,#374,#375),
 .UNSPECIFIED.,.T.,.F.,(4,3,3,3,3,4),(0.,0.4079964241848,0.497469324225719,
0.909044664413945,0.994938648453226,1.),.UNSPECIFIED.);
#222=DRAUGHTING_PRE_DEFINED_COLOUR('white');
#223=DRAUGHTING_PRE_DEFINED_COLOUR('blue');
#224=PRESENTATION_LAYER_ASSIGNMENT('1','Layer 1',(#357,#358,#359,#221,#254,
#255,#256,#38,#39));
#225=STYLED_ITEM('',(#234),#357);
#226=STYLED_ITEM('',(#235),#358);
#227=STYLED_ITEM('',(#236),#359);
#228=STYLED_ITEM('',(#237),#221);
#229=STYLED_ITEM('',(#238),#254);
#230=STYLED_ITEM('',(#239),#255);
#231=STYLED_ITEM('',(#240),#256);
#232=STYLED_ITEM('',(#241),#38);
#233=STYLED_ITEM('',(#242),#39);
#234=PRESENTATION_STYLE_ASSIGNMENT((#243));
#235=PRESENTATION_STYLE_ASSIGNMENT((#244));
#236=PRESENTATION_STYLE_ASSIGNMENT((#245));
#237=PRESENTATION_STYLE_ASSIGNMENT((#213));
#238=PRESENTATION_STYLE_ASSIGNMENT((#214));
#239=PRESENTATION_STYLE_ASSIGNMENT((#215));
#240=PRESENTATION_STYLE_ASSIGNMENT((#216));
#241=PRESENTATION_STYLE_ASSIGNMENT((#28));
#242=PRESENTATION_STYLE_ASSIGNMENT((#29));
#243=POINT_STYLE('',#246,POSITIVE_LENGTH_MEASURE(3.),#249);
#244=POINT_STYLE('',#247,POSITIVE_LENGTH_MEASURE(3.),#222);
#245=POINT_STYLE('',#248,POSITIVE_LENGTH_MEASURE(3.),#249);
#246=PRE_DEFINED_POINT_MARKER_SYMBOL('plus');
#247=PRE_DEFINED_POINT_MARKER_SYMBOL('plus');
#248=PRE_DEFINED_POINT_MARKER_SYMBOL('plus');
#249=COLOUR_RGB('Medium Maroon',0.6,0.4,0.4);
#250=COLOUR_RGB('Silver Gray',0.6,0.6,0.6);
#251=COLOUR_RGB('TLS_NOCUT',0.498023956664378,0.498023956664378,0.498023956664378);
#252=COLOUR_RGB('TLS_CUT',0.8,0.8,0.8);
#253=AXIS2_PLACEMENT_3D('',#356,#286,#287);
#254=AXIS2_PLACEMENT_3D('PCS',#376,#288,#289);
#255=AXIS2_PLACEMENT_3D('MCS',#377,#290,#291);
#256=AXIS2_PLACEMENT_3D('CIP',#378,#292,#293);
#257=AXIS2_PLACEMENT_3D('',#379,#294,#295);
#258=AXIS2_PLACEMENT_3D('',#381,#296,#297);
#259=AXIS2_PLACEMENT_3D('',#383,#298,#299);
#260=AXIS2_PLACEMENT_3D('',#388,#301,#302);
#261=AXIS2_PLACEMENT_3D('',#391,#304,#305);
#262=AXIS2_PLACEMENT_3D('',#392,#306,#307);
#263=AXIS2_PLACEMENT_3D('',#394,#308,#309);
#264=AXIS2_PLACEMENT_3D('',#395,#310,#311);
#265=AXIS2_PLACEMENT_3D('',#397,#312,#313);
#266=AXIS2_PLACEMENT_3D('',#399,#314,#315);
#267=AXIS2_PLACEMENT_3D('',#400,#316,#317);
#268=AXIS2_PLACEMENT_3D('',#402,#318,#319);
#269=AXIS2_PLACEMENT_3D('',#404,#320,#321);
#270=AXIS2_PLACEMENT_3D('',#405,#322,#323);
#271=AXIS2_PLACEMENT_3D('',#406,#324,#325);
#272=AXIS2_PLACEMENT_3D('',#407,#326,#327);
#273=AXIS2_PLACEMENT_3D('',#409,#328,#329);
#274=AXIS2_PLACEMENT_3D('',#410,#330,#331);
#275=AXIS2_PLACEMENT_3D('',#412,#333,#334);
#276=AXIS2_PLACEMENT_3D('',#414,#336,#337);
#277=AXIS2_PLACEMENT_3D('',#415,#338,#339);
#278=AXIS2_PLACEMENT_3D('',#416,#340,#341);
#279=AXIS2_PLACEMENT_3D('',#417,#342,#343);
#280=AXIS2_PLACEMENT_3D('',#419,#344,#345);
#281=AXIS2_PLACEMENT_3D('',#420,#346,#347);
#282=AXIS2_PLACEMENT_3D('',#422,#348,#349);
#283=AXIS2_PLACEMENT_3D('',#423,#350,#351);
#284=AXIS2_PLACEMENT_3D('',#425,#352,#353);
#285=AXIS2_PLACEMENT_3D('',#426,#354,#355);
#286=DIRECTION('',(0.,0.,1.));
#287=DIRECTION('',(1.,0.,0.));
#288=DIRECTION('',(0.,0.,1.));
#289=DIRECTION('',(1.,0.,0.));
#290=DIRECTION('',(0.,0.,1.));
#291=DIRECTION('',(1.,0.,0.));
#292=DIRECTION('',(0.,0.,1.));
#293=DIRECTION('',(1.,0.,0.));
#294=DIRECTION('',(0.,0.,1.));
#295=DIRECTION('',(1.,0.,0.));
#296=DIRECTION('',(0.,0.,-1.));
#297=DIRECTION('',(-1.,0.,0.));
#298=DIRECTION('',(0.,0.707106781186546,-0.707106781186549));
#299=DIRECTION('',(0.,0.707106781186549,0.707106781186546));
#300=DIRECTION('',(0.,0.,1.));
#301=DIRECTION('',(0.,0.707106781186548,0.707106781186547));
#302=DIRECTION('',(0.,-0.707106781186547,0.707106781186548));
#303=DIRECTION('',(0.,0.,-1.));
#304=DIRECTION('',(0.,0.,1.));
#305=DIRECTION('',(1.,0.,0.));
#306=DIRECTION('',(0.,0.,1.));
#307=DIRECTION('',(1.,0.,0.));
#308=DIRECTION('',(0.,0.,1.));
#309=DIRECTION('',(1.,0.,4.76776823521277E-17));
#310=DIRECTION('',(0.,0.,-1.));
#311=DIRECTION('',(-1.,0.,0.));
#312=DIRECTION('',(0.,0.,-1.));
#313=DIRECTION('',(-1.,0.,0.));
#314=DIRECTION('',(0.,0.,-1.));
#315=DIRECTION('',(-1.,0.,1.4298392437039E-16));
#316=DIRECTION('',(0.,0.,1.));
#317=DIRECTION('',(1.,0.,0.));
#318=DIRECTION('',(0.,0.,-1.));
#319=DIRECTION('',(1.,0.,0.));
#320=DIRECTION('',(0.,0.,1.));
#321=DIRECTION('',(1.,0.,0.));
#322=DIRECTION('',(0.,0.,1.));
#323=DIRECTION('',(1.,0.,0.));
#324=DIRECTION('',(0.,0.,1.));
#325=DIRECTION('',(1.,0.,0.));
#326=DIRECTION('',(0.,0.,1.));
#327=DIRECTION('',(-1.,0.,0.));
#328=DIRECTION('',(0.,0.,-1.));
#329=DIRECTION('',(-1.,0.,0.));
#330=DIRECTION('',(0.,0.,-1.));
#331=DIRECTION('',(-1.,0.,0.));
#332=DIRECTION('',(1.,0.,0.));
#333=DIRECTION('',(0.,0.707106781186546,-0.707106781186549));
#334=DIRECTION('',(0.,-0.707106781186549,-0.707106781186546));
#335=DIRECTION('',(1.,0.,0.));
#336=DIRECTION('',(0.,1.,-1.23908819712629E-16));
#337=DIRECTION('',(0.,-1.24032728532342E-16,-1.));
#338=DIRECTION('',(0.,0.707106781186548,0.707106781186547));
#339=DIRECTION('',(0.,0.707106781186547,-0.707106781186548));
#340=DIRECTION('',(0.,0.,-1.));
#341=DIRECTION('',(-1.,0.,0.));
#342=DIRECTION('',(0.,0.,1.));
#343=DIRECTION('',(1.,0.,0.));
#344=DIRECTION('',(0.,0.,1.));
#345=DIRECTION('',(1.,0.,0.));
#346=DIRECTION('',(0.,0.,1.));
#347=DIRECTION('',(1.,0.,0.));
#348=DIRECTION('',(0.,0.,1.));
#349=DIRECTION('',(1.,0.,0.));
#350=DIRECTION('',(0.,0.,1.));
#351=DIRECTION('',(1.,0.,0.));
#352=DIRECTION('',(0.,0.,1.));
#353=DIRECTION('',(1.,0.,4.14262322621338E-17));
#354=DIRECTION('',(0.,0.,1.));
#355=DIRECTION('',(1.,0.,0.));
#356=CARTESIAN_POINT('',(0.,0.,0.));
#357=CARTESIAN_POINT('',(0.,0.,-40.));
#358=CARTESIAN_POINT('CRP',(-5.,0.,-72.));
#359=CARTESIAN_POINT('CIP_DCSYS',(0.,0.,-72.));
#360=CARTESIAN_POINT('',(-5.,0.,-71.8));
#361=CARTESIAN_POINT('',(-5.,0.,-64.2));
#362=CARTESIAN_POINT('',(-5.,0.,-56.6));
#363=CARTESIAN_POINT('',(-5.,0.,-49.));
#364=CARTESIAN_POINT('',(-3.33333333333334,0.,-49.));
#365=CARTESIAN_POINT('',(-1.66666666666667,0.,-49.));
#366=CARTESIAN_POINT('',(0.,0.,-49.));
#367=CARTESIAN_POINT('',(0.,0.,-56.6666666666667));
#368=CARTESIAN_POINT('',(0.,0.,-64.3333333333334));
#369=CARTESIAN_POINT('',(0.,0.,-72.));
#370=CARTESIAN_POINT('',(-1.6,0.,-72.));
#371=CARTESIAN_POINT('',(-3.2,0.,-72.));
#372=CARTESIAN_POINT('',(-4.8,0.,-72.));
#373=CARTESIAN_POINT('',(-4.86666666666667,0.,-71.9333333333334));
#374=CARTESIAN_POINT('',(-4.93333333333333,0.,-71.8666666666667));
#375=CARTESIAN_POINT('',(-5.,0.,-71.8));
#376=CARTESIAN_POINT('',(0.,0.,0.));
#377=CARTESIAN_POINT('',(0.,0.,-40.));
#378=CARTESIAN_POINT('',(0.,0.,-72.));
#379=CARTESIAN_POINT('',(0.,0.,-39.883319568216));
#380=CARTESIAN_POINT('',(5.,0.,-39.883319568216));
#381=CARTESIAN_POINT('',(0.,0.,-0.6));
#382=CARTESIAN_POINT('',(-5.,0.,-0.6));
#383=CARTESIAN_POINT('',(0.,0.,-20.));
#384=CARTESIAN_POINT('',(-3.57071421427143,3.5,-16.5));
#385=CARTESIAN_POINT('',(3.57071421427143,3.5,-16.5));
#386=CARTESIAN_POINT('',(-3.57071421427143,3.5,20.9080749503476));
#387=CARTESIAN_POINT('',(-3.57071421427142,3.5,-23.5));
#388=CARTESIAN_POINT('',(0.,0.,-20.));
#389=CARTESIAN_POINT('',(3.57071421427142,3.5,-23.5));
#390=CARTESIAN_POINT('',(3.57071421427143,3.5,20.9080749503476));
#391=CARTESIAN_POINT('',(0.,0.,20.9080749503476));
#392=CARTESIAN_POINT('',(0.,0.,-39.9976789221609));
#393=CARTESIAN_POINT('',(4.93397459621556,0.,-39.9976789221609));
#394=CARTESIAN_POINT('',(0.,0.,-40.2297297297297));
#395=CARTESIAN_POINT('',(0.,0.,-48.8856406460551));
#396=CARTESIAN_POINT('',(-4.93397459621556,0.,-48.8856406460551));
#397=CARTESIAN_POINT('',(0.,0.,-49.));
#398=CARTESIAN_POINT('',(-5.,0.,-49.));
#399=CARTESIAN_POINT('',(0.,0.,-49.));
#400=CARTESIAN_POINT('',(0.,0.,-48.3856406460551));
#401=CARTESIAN_POINT('',(4.8,0.,-48.3856406460551));
#402=CARTESIAN_POINT('',(0.,0.,-40.4976789221609));
#403=CARTESIAN_POINT('',(4.8,0.,-40.4976789221609));
#404=CARTESIAN_POINT('',(0.,0.,0.));
#405=CARTESIAN_POINT('',(0.,0.,-40.4976789221609));
#406=CARTESIAN_POINT('',(0.,0.,-48.3856406460551));
#407=CARTESIAN_POINT('',(0.,0.,0.));
#408=CARTESIAN_POINT('',(-4.4,0.,0.));
#409=CARTESIAN_POINT('',(0.,5.,0.));
#410=CARTESIAN_POINT('',(0.,0.,0.));
#411=CARTESIAN_POINT('',(10.,3.5,-16.5));
#412=CARTESIAN_POINT('',(10.,5.,-15.));
#413=CARTESIAN_POINT('',(10.,3.5,-23.5));
#414=CARTESIAN_POINT('',(10.,3.5,-16.5));
#415=CARTESIAN_POINT('',(10.,5.,-25.));
#416=CARTESIAN_POINT('',(0.,0.,-49.));
#417=CARTESIAN_POINT('',(0.,0.,-49.));
#418=CARTESIAN_POINT('',(5.,0.,-49.));
#419=CARTESIAN_POINT('',(0.,0.,-49.));
#420=CARTESIAN_POINT('',(0.,0.,-71.8));
#421=CARTESIAN_POINT('',(5.,0.,-71.8));
#422=CARTESIAN_POINT('',(0.,0.,0.));
#423=CARTESIAN_POINT('',(0.,0.,-72.));
#424=CARTESIAN_POINT('',(4.8,0.,-72.));
#425=CARTESIAN_POINT('',(0.,0.,-71.8));
#426=CARTESIAN_POINT('',(0.,0.,-72.));
#427=MECHANICAL_DESIGN_GEOMETRIC_PRESENTATION_REPRESENTATION('',(#225,#226,
#227,#228,#229,#230,#231,#232,#233),#428);
#428=(
GEOMETRIC_REPRESENTATION_CONTEXT(3)
GLOBAL_UNCERTAINTY_ASSIGNED_CONTEXT((#429))
GLOBAL_UNIT_ASSIGNED_CONTEXT((#435,#431,#430))
REPRESENTATION_CONTEXT('TOOL','TOP_LEVEL_ASSEMBLY_PART')
);
#429=UNCERTAINTY_MEASURE_WITH_UNIT(LENGTH_MEASURE(2.E-5),#435,
'DISTANCE_ACCURACY_VALUE','Maximum Tolerance applied to model');
#430=(
NAMED_UNIT(*)
SI_UNIT($,.STERADIAN.)
SOLID_ANGLE_UNIT()
);
#431=(
CONVERSION_BASED_UNIT('DEGREE',#433)
NAMED_UNIT(#432)
PLANE_ANGLE_UNIT()
);
#432=DIMENSIONAL_EXPONENTS(0.,0.,0.,0.,0.,0.,0.);
#433=PLANE_ANGLE_MEASURE_WITH_UNIT(PLANE_ANGLE_MEASURE(0.0174532925),#434);
#434=(
NAMED_UNIT(*)
PLANE_ANGLE_UNIT()
SI_UNIT($,.RADIAN.)
);
#435=(
LENGTH_UNIT()
NAMED_UNIT(*)
SI_UNIT(.MILLI.,.METRE.)
);
ENDSEC;
END-ISO-10303-21;
