ISO-10303-21;
HEADER;
/* Generated by software containing ST-Developer
 * from STEP Tools, Inc. (www.steptools.com) 
 */
/* OPTION: using custom schema-name function */

FILE_DESCRIPTION(
/* description */ (''),
/* implementation_level */ '2;1');

FILE_NAME(
/* name */ 'TOOL.STP',
/* time_stamp */ '2023-03-20T04:44:20+01:00',
/* author */ (''),
/* organization */ ('SMS'),
/* preprocessor_version */ 'ST-DEVELOPER v16.7',
/* originating_system */ 'SIEMENS PLM Software NX 12.0',
/* authorisation */ '');

FILE_SCHEMA (('AUTOMOTIVE_DESIGN { 1 0 10303 214 3 1 1 1 }'));
ENDSEC;

DATA;
#10=CONSTRUCTIVE_GEOMETRY_REPRESENTATION_RELATIONSHIP(
'supplemental geometry','',#26,#11);
#11=CONSTRUCTIVE_GEOMETRY_REPRESENTATION('supplemental geometry',(#198,
#199,#200),#331);
#12=GEOMETRICALLY_BOUNDED_WIREFRAME_SHAPE_REPRESENTATION('Tool-None',(#27),
#331);
#13=SHAPE_REPRESENTATION_RELATIONSHIP('None',
'relationship between Tool-None and Tool-None',#26,#15);
#14=SHAPE_REPRESENTATION_RELATIONSHIP('None',
'relationship between Tool-None and Tool-None',#26,#12);
#15=ADVANCED_BREP_SHAPE_REPRESENTATION('Tool-None',(#38,#39),#331);
#16=SHAPE_DEFINITION_REPRESENTATION(#17,#26);
#17=PRODUCT_DEFINITION_SHAPE('','',#18);
#18=PRODUCT_DEFINITION(' ','',#20,#19);
#19=PRODUCT_DEFINITION_CONTEXT('part definition',#25,'design');
#20=PRODUCT_DEFINITION_FORMATION_WITH_SPECIFIED_SOURCE(' ',' ',#22,
 .NOT_KNOWN.);
#21=PRODUCT_RELATED_PRODUCT_CATEGORY('part','',(#22));
#22=PRODUCT('Tool','Tool',' ',(#23));
#23=PRODUCT_CONTEXT(' ',#25,'mechanical');
#24=APPLICATION_PROTOCOL_DEFINITION('international standard',
'automotive_design',2010,#25);
#25=APPLICATION_CONTEXT(
'core data for automotive mechanical design processes');
#26=SHAPE_REPRESENTATION('Tool-None',(#197),#331);
#27=GEOMETRIC_CURVE_SET('None',(#276,#277,#278,#164));
#28=SURFACE_STYLE_USAGE(.BOTH.,#30);
#29=SURFACE_STYLE_USAGE(.BOTH.,#31);
#30=SURFACE_SIDE_STYLE('',(#32));
#31=SURFACE_SIDE_STYLE('',(#33));
#32=SURFACE_STYLE_FILL_AREA(#34);
#33=SURFACE_STYLE_FILL_AREA(#35);
#34=FILL_AREA_STYLE('',(#36));
#35=FILL_AREA_STYLE('',(#37));
#36=FILL_AREA_STYLE_COLOUR('',#195);
#37=FILL_AREA_STYLE_COLOUR('',#196);
#38=MANIFOLD_SOLID_BREP('NOCUT',#40);
#39=MANIFOLD_SOLID_BREP('CUT',#41);
#40=CLOSED_SHELL('',(#56,#57,#58,#59,#60,#61,#62,#63));
#41=CLOSED_SHELL('',(#64,#65,#66,#67));
#42=PLANE('',#211);
#43=PLANE('',#215);
#44=PLANE('',#217);
#45=PLANE('',#219);
#46=FACE_OUTER_BOUND('',#94,.T.);
#47=FACE_OUTER_BOUND('',#99,.T.);
#48=FACE_OUTER_BOUND('',#100,.T.);
#49=FACE_OUTER_BOUND('',#101,.T.);
#50=TOROIDAL_SURFACE('',#207,2.92,1.);
#51=TOROIDAL_SURFACE('',#209,2.92,1.);
#52=TOROIDAL_SURFACE('',#222,1.5,0.5);
#53=CYLINDRICAL_SURFACE('',#206,1.92);
#54=CYLINDRICAL_SURFACE('',#213,3.);
#55=CYLINDRICAL_SURFACE('',#221,2.);
#56=ADVANCED_FACE('',(#70,#71),#68,.T.);
#57=ADVANCED_FACE('',(#72,#73),#53,.T.);
#58=ADVANCED_FACE('',(#74,#75),#50,.F.);
#59=ADVANCED_FACE('',(#76,#77),#51,.F.);
#60=ADVANCED_FACE('',(#46),#42,.F.);
#61=ADVANCED_FACE('',(#78,#79),#54,.T.);
#62=ADVANCED_FACE('',(#80,#81),#69,.T.);
#63=ADVANCED_FACE('',(#47),#43,.T.);
#64=ADVANCED_FACE('',(#48),#44,.T.);
#65=ADVANCED_FACE('',(#49),#45,.F.);
#66=ADVANCED_FACE('',(#82,#83),#55,.T.);
#67=ADVANCED_FACE('',(#84,#85),#52,.T.);
#68=CONICAL_SURFACE('',#203,1.92,30.0000000000002);
#69=CONICAL_SURFACE('',#214,2.6,45.);
#70=FACE_BOUND('',#86,.T.);
#71=FACE_BOUND('',#87,.T.);
#72=FACE_BOUND('',#88,.T.);
#73=FACE_BOUND('',#89,.T.);
#74=FACE_BOUND('',#90,.T.);
#75=FACE_BOUND('',#91,.T.);
#76=FACE_BOUND('',#92,.T.);
#77=FACE_BOUND('',#93,.T.);
#78=FACE_BOUND('',#95,.T.);
#79=FACE_BOUND('',#96,.T.);
#80=FACE_BOUND('',#97,.T.);
#81=FACE_BOUND('',#98,.T.);
#82=FACE_BOUND('',#102,.T.);
#83=FACE_BOUND('',#103,.T.);
#84=FACE_BOUND('',#104,.T.);
#85=FACE_BOUND('',#105,.T.);
#86=EDGE_LOOP('',(#106));
#87=EDGE_LOOP('',(#107));
#88=EDGE_LOOP('',(#108));
#89=EDGE_LOOP('',(#109));
#90=EDGE_LOOP('',(#110));
#91=EDGE_LOOP('',(#111));
#92=EDGE_LOOP('',(#112));
#93=EDGE_LOOP('',(#113));
#94=EDGE_LOOP('',(#114));
#95=EDGE_LOOP('',(#115));
#96=EDGE_LOOP('',(#116));
#97=EDGE_LOOP('',(#117));
#98=EDGE_LOOP('',(#118));
#99=EDGE_LOOP('',(#119));
#100=EDGE_LOOP('',(#120));
#101=EDGE_LOOP('',(#121));
#102=EDGE_LOOP('',(#122));
#103=EDGE_LOOP('',(#123));
#104=EDGE_LOOP('',(#124));
#105=EDGE_LOOP('',(#125));
#106=ORIENTED_EDGE('',*,*,#136,.T.);
#107=ORIENTED_EDGE('',*,*,#137,.F.);
#108=ORIENTED_EDGE('',*,*,#138,.T.);
#109=ORIENTED_EDGE('',*,*,#139,.T.);
#110=ORIENTED_EDGE('',*,*,#139,.F.);
#111=ORIENTED_EDGE('',*,*,#136,.F.);
#112=ORIENTED_EDGE('',*,*,#140,.F.);
#113=ORIENTED_EDGE('',*,*,#138,.F.);
#114=ORIENTED_EDGE('',*,*,#141,.T.);
#115=ORIENTED_EDGE('',*,*,#142,.T.);
#116=ORIENTED_EDGE('',*,*,#137,.T.);
#117=ORIENTED_EDGE('',*,*,#142,.F.);
#118=ORIENTED_EDGE('',*,*,#141,.F.);
#119=ORIENTED_EDGE('',*,*,#140,.T.);
#120=ORIENTED_EDGE('',*,*,#143,.T.);
#121=ORIENTED_EDGE('',*,*,#144,.T.);
#122=ORIENTED_EDGE('',*,*,#145,.T.);
#123=ORIENTED_EDGE('',*,*,#143,.F.);
#124=ORIENTED_EDGE('',*,*,#144,.F.);
#125=ORIENTED_EDGE('',*,*,#145,.F.);
#126=VERTEX_POINT('',#299);
#127=VERTEX_POINT('',#301);
#128=VERTEX_POINT('',#304);
#129=VERTEX_POINT('',#306);
#130=VERTEX_POINT('',#310);
#131=VERTEX_POINT('',#313);
#132=VERTEX_POINT('',#316);
#133=VERTEX_POINT('',#321);
#134=VERTEX_POINT('',#324);
#135=VERTEX_POINT('',#327);
#136=EDGE_CURVE('',#126,#126,#146,.T.);
#137=EDGE_CURVE('',#127,#127,#147,.T.);
#138=EDGE_CURVE('',#128,#128,#148,.T.);
#139=EDGE_CURVE('',#129,#129,#149,.T.);
#140=EDGE_CURVE('',#130,#130,#150,.T.);
#141=EDGE_CURVE('',#131,#131,#151,.T.);
#142=EDGE_CURVE('',#132,#132,#152,.T.);
#143=EDGE_CURVE('',#133,#133,#153,.T.);
#144=EDGE_CURVE('',#134,#134,#154,.T.);
#145=EDGE_CURVE('',#135,#135,#155,.T.);
#146=CIRCLE('',#201,2.05397459621556);
#147=CIRCLE('',#202,3.);
#148=CIRCLE('',#204,1.92);
#149=CIRCLE('',#205,1.92);
#150=CIRCLE('',#208,2.);
#151=CIRCLE('',#210,2.6);
#152=CIRCLE('',#212,3.);
#153=CIRCLE('',#216,2.);
#154=CIRCLE('',#218,1.5);
#155=CIRCLE('',#220,2.);
#156=CURVE_STYLE('',#160,POSITIVE_LENGTH_MEASURE(0.18),#167);
#157=CURVE_STYLE('',#161,POSITIVE_LENGTH_MEASURE(0.13),#194);
#158=CURVE_STYLE('',#162,POSITIVE_LENGTH_MEASURE(0.18),#193);
#159=CURVE_STYLE('',#163,POSITIVE_LENGTH_MEASURE(0.18),#193);
#160=DRAUGHTING_PRE_DEFINED_CURVE_FONT('continuous');
#161=DRAUGHTING_PRE_DEFINED_CURVE_FONT('continuous');
#162=DRAUGHTING_PRE_DEFINED_CURVE_FONT('continuous');
#163=DRAUGHTING_PRE_DEFINED_CURVE_FONT('continuous');
#164=TRIMMED_CURVE('CUTTING PART LINE',#165,(PARAMETER_VALUE(0.)),(
PARAMETER_VALUE(1.)),.T.,.PARAMETER.);
#165=(
BOUNDED_CURVE()
B_SPLINE_CURVE(3,(#279,#280,#281,#282,#283,#284,#285,#286,#287,#288,#289,
#290,#291,#292,#293,#294),.UNSPECIFIED.,.T.,.F.)
B_SPLINE_CURVE_WITH_KNOTS((1,3,3,3,3,3,3,1),(-0.0497547261830223,0.,0.348423267068548,
0.475122636911656,0.855220746434647,0.950245273816978,1.,1.34842326706855),
 .UNSPECIFIED.)
CURVE()
GEOMETRIC_REPRESENTATION_ITEM()
RATIONAL_B_SPLINE_CURVE((1.,1.,1.,1.,1.,1.,1.,1.,1.,1.,1.,1.,1.,0.804737854124365,
0.804737854124365,1.))
REPRESENTATION_ITEM('CUTTING PART LINE')
);
#166=DRAUGHTING_PRE_DEFINED_COLOUR('white');
#167=DRAUGHTING_PRE_DEFINED_COLOUR('blue');
#168=PRESENTATION_LAYER_ASSIGNMENT('1','Layer 1',(#276,#277,#278,#164,#198,
#199,#200,#38,#39));
#169=STYLED_ITEM('',(#178),#276);
#170=STYLED_ITEM('',(#179),#277);
#171=STYLED_ITEM('',(#180),#278);
#172=STYLED_ITEM('',(#181),#164);
#173=STYLED_ITEM('',(#182),#198);
#174=STYLED_ITEM('',(#183),#199);
#175=STYLED_ITEM('',(#184),#200);
#176=STYLED_ITEM('',(#185),#38);
#177=STYLED_ITEM('',(#186),#39);
#178=PRESENTATION_STYLE_ASSIGNMENT((#187));
#179=PRESENTATION_STYLE_ASSIGNMENT((#188));
#180=PRESENTATION_STYLE_ASSIGNMENT((#189));
#181=PRESENTATION_STYLE_ASSIGNMENT((#156));
#182=PRESENTATION_STYLE_ASSIGNMENT((#157));
#183=PRESENTATION_STYLE_ASSIGNMENT((#158));
#184=PRESENTATION_STYLE_ASSIGNMENT((#159));
#185=PRESENTATION_STYLE_ASSIGNMENT((#28));
#186=PRESENTATION_STYLE_ASSIGNMENT((#29));
#187=POINT_STYLE('',#190,POSITIVE_LENGTH_MEASURE(3.),#193);
#188=POINT_STYLE('',#191,POSITIVE_LENGTH_MEASURE(3.),#166);
#189=POINT_STYLE('',#192,POSITIVE_LENGTH_MEASURE(3.),#193);
#190=PRE_DEFINED_POINT_MARKER_SYMBOL('plus');
#191=PRE_DEFINED_POINT_MARKER_SYMBOL('plus');
#192=PRE_DEFINED_POINT_MARKER_SYMBOL('plus');
#193=COLOUR_RGB('Medium Maroon',0.6,0.4,0.4);
#194=COLOUR_RGB('Silver Gray',0.6,0.6,0.6);
#195=COLOUR_RGB('TLS_NOCUT',0.498023956664378,0.498023956664378,0.498023956664378);
#196=COLOUR_RGB('TLS_CUT',0.8,0.8,0.8);
#197=AXIS2_PLACEMENT_3D('',#275,#223,#224);
#198=AXIS2_PLACEMENT_3D('PCS',#295,#225,#226);
#199=AXIS2_PLACEMENT_3D('MCS',#296,#227,#228);
#200=AXIS2_PLACEMENT_3D('CIP',#297,#229,#230);
#201=AXIS2_PLACEMENT_3D('',#298,#231,#232);
#202=AXIS2_PLACEMENT_3D('',#300,#233,#234);
#203=AXIS2_PLACEMENT_3D('',#302,#235,#236);
#204=AXIS2_PLACEMENT_3D('',#303,#237,#238);
#205=AXIS2_PLACEMENT_3D('',#305,#239,#240);
#206=AXIS2_PLACEMENT_3D('',#307,#241,#242);
#207=AXIS2_PLACEMENT_3D('',#308,#243,#244);
#208=AXIS2_PLACEMENT_3D('',#309,#245,#246);
#209=AXIS2_PLACEMENT_3D('',#311,#247,#248);
#210=AXIS2_PLACEMENT_3D('',#312,#249,#250);
#211=AXIS2_PLACEMENT_3D('',#314,#251,#252);
#212=AXIS2_PLACEMENT_3D('',#315,#253,#254);
#213=AXIS2_PLACEMENT_3D('',#317,#255,#256);
#214=AXIS2_PLACEMENT_3D('',#318,#257,#258);
#215=AXIS2_PLACEMENT_3D('',#319,#259,#260);
#216=AXIS2_PLACEMENT_3D('',#320,#261,#262);
#217=AXIS2_PLACEMENT_3D('',#322,#263,#264);
#218=AXIS2_PLACEMENT_3D('',#323,#265,#266);
#219=AXIS2_PLACEMENT_3D('',#325,#267,#268);
#220=AXIS2_PLACEMENT_3D('',#326,#269,#270);
#221=AXIS2_PLACEMENT_3D('',#328,#271,#272);
#222=AXIS2_PLACEMENT_3D('',#329,#273,#274);
#223=DIRECTION('',(0.,0.,1.));
#224=DIRECTION('',(1.,0.,0.));
#225=DIRECTION('',(0.,0.,1.));
#226=DIRECTION('',(1.,0.,0.));
#227=DIRECTION('',(0.,0.,1.));
#228=DIRECTION('',(1.,0.,0.));
#229=DIRECTION('',(0.,0.,1.));
#230=DIRECTION('',(1.,0.,0.));
#231=DIRECTION('',(0.,0.,1.));
#232=DIRECTION('',(1.,0.,0.));
#233=DIRECTION('',(0.,0.,1.));
#234=DIRECTION('',(1.,0.,0.));
#235=DIRECTION('',(0.,0.,1.));
#236=DIRECTION('',(1.,0.,-7.18720874138532E-17));
#237=DIRECTION('',(0.,0.,1.));
#238=DIRECTION('',(-1.,0.,0.));
#239=DIRECTION('',(0.,0.,-1.));
#240=DIRECTION('',(1.,0.,0.));
#241=DIRECTION('',(0.,0.,1.));
#242=DIRECTION('',(1.,0.,0.));
#243=DIRECTION('',(0.,0.,1.));
#244=DIRECTION('',(1.,0.,0.));
#245=DIRECTION('',(0.,0.,-1.));
#246=DIRECTION('',(1.,0.,0.));
#247=DIRECTION('',(0.,0.,-1.));
#248=DIRECTION('',(-1.,0.,0.));
#249=DIRECTION('',(0.,0.,1.));
#250=DIRECTION('',(-1.,0.,0.));
#251=DIRECTION('',(0.,0.,-1.));
#252=DIRECTION('',(-1.,0.,0.));
#253=DIRECTION('',(0.,0.,-1.));
#254=DIRECTION('',(-1.,0.,0.));
#255=DIRECTION('',(0.,0.,1.));
#256=DIRECTION('',(1.,0.,0.));
#257=DIRECTION('',(0.,0.,-1.));
#258=DIRECTION('',(-1.,0.,0.));
#259=DIRECTION('',(0.,0.,-1.));
#260=DIRECTION('',(-1.,0.,0.));
#261=DIRECTION('',(0.,0.,1.));
#262=DIRECTION('',(1.,0.,0.));
#263=DIRECTION('',(0.,0.,1.));
#264=DIRECTION('',(1.,0.,0.));
#265=DIRECTION('',(0.,0.,-1.));
#266=DIRECTION('',(1.,0.,0.));
#267=DIRECTION('',(0.,0.,1.));
#268=DIRECTION('',(1.,0.,0.));
#269=DIRECTION('',(0.,0.,1.));
#270=DIRECTION('',(1.,0.,0.));
#271=DIRECTION('',(0.,0.,1.));
#272=DIRECTION('',(1.,0.,0.));
#273=DIRECTION('',(0.,0.,1.));
#274=DIRECTION('',(1.,0.,0.));
#275=CARTESIAN_POINT('',(0.,0.,0.));
#276=CARTESIAN_POINT('',(0.,0.,-36.));
#277=CARTESIAN_POINT('CRP',(-2.,0.,-54.));
#278=CARTESIAN_POINT('CIP_DCSYS',(0.,0.,-54.));
#279=CARTESIAN_POINT('',(-2.,0.,-53.5));
#280=CARTESIAN_POINT('',(-2.,0.,-51.6666666666667));
#281=CARTESIAN_POINT('',(-2.,0.,-49.8333333333333));
#282=CARTESIAN_POINT('',(-2.,0.,-48.));
#283=CARTESIAN_POINT('',(-1.33333333333333,0.,-48.));
#284=CARTESIAN_POINT('',(-0.666666666666667,0.,-48.));
#285=CARTESIAN_POINT('',(0.,0.,-48.));
#286=CARTESIAN_POINT('',(0.,0.,-50.));
#287=CARTESIAN_POINT('',(0.,0.,-52.));
#288=CARTESIAN_POINT('',(0.,0.,-54.));
#289=CARTESIAN_POINT('',(-0.5,0.,-54.));
#290=CARTESIAN_POINT('',(-1.,0.,-54.));
#291=CARTESIAN_POINT('',(-1.5,0.,-54.));
#292=CARTESIAN_POINT('',(-1.79289321881345,0.,-54.));
#293=CARTESIAN_POINT('',(-2.,0.,-53.7928932188135));
#294=CARTESIAN_POINT('',(-2.,0.,-53.5));
#295=CARTESIAN_POINT('',(0.,0.,0.));
#296=CARTESIAN_POINT('',(0.,0.,-36.));
#297=CARTESIAN_POINT('',(0.,0.,-54.));
#298=CARTESIAN_POINT('',(0.,0.,-39.4976789221609));
#299=CARTESIAN_POINT('',(2.05397459621556,0.,-39.4976789221609));
#300=CARTESIAN_POINT('',(0.,0.,-37.8591148575554));
#301=CARTESIAN_POINT('',(3.,0.,-37.8591148575554));
#302=CARTESIAN_POINT('',(0.,0.,-39.7297297297297));
#303=CARTESIAN_POINT('',(0.,0.,-47.6080816411547));
#304=CARTESIAN_POINT('',(-1.92,0.,-47.6080816411547));
#305=CARTESIAN_POINT('',(0.,0.,-39.9976789221609));
#306=CARTESIAN_POINT('',(1.92,0.,-39.9976789221609));
#307=CARTESIAN_POINT('',(0.,0.,0.));
#308=CARTESIAN_POINT('',(0.,0.,-39.9976789221609));
#309=CARTESIAN_POINT('',(0.,0.,-48.));
#310=CARTESIAN_POINT('',(2.,0.,-48.));
#311=CARTESIAN_POINT('',(0.,0.,-47.6080816411547));
#312=CARTESIAN_POINT('',(0.,0.,0.));
#313=CARTESIAN_POINT('',(-2.6,0.,0.));
#314=CARTESIAN_POINT('',(0.,3.00000000000001,0.));
#315=CARTESIAN_POINT('',(0.,0.,-0.400000000000001));
#316=CARTESIAN_POINT('',(-3.,0.,-0.400000000000001));
#317=CARTESIAN_POINT('',(0.,0.,20.9080749503476));
#318=CARTESIAN_POINT('',(0.,0.,0.));
#319=CARTESIAN_POINT('',(0.,0.,-48.));
#320=CARTESIAN_POINT('',(0.,0.,-48.));
#321=CARTESIAN_POINT('',(2.,0.,-48.));
#322=CARTESIAN_POINT('',(0.,0.,-48.));
#323=CARTESIAN_POINT('',(0.,0.,-54.));
#324=CARTESIAN_POINT('',(1.5,0.,-54.));
#325=CARTESIAN_POINT('',(0.,0.,-54.));
#326=CARTESIAN_POINT('',(0.,0.,-53.5));
#327=CARTESIAN_POINT('',(2.,0.,-53.5));
#328=CARTESIAN_POINT('',(0.,0.,0.));
#329=CARTESIAN_POINT('',(0.,0.,-53.5));
#330=MECHANICAL_DESIGN_GEOMETRIC_PRESENTATION_REPRESENTATION('',(#169,#170,
#171,#172,#173,#174,#175,#176,#177),#331);
#331=(
GEOMETRIC_REPRESENTATION_CONTEXT(3)
GLOBAL_UNCERTAINTY_ASSIGNED_CONTEXT((#332))
GLOBAL_UNIT_ASSIGNED_CONTEXT((#338,#334,#333))
REPRESENTATION_CONTEXT('TOOL','TOP_LEVEL_ASSEMBLY_PART')
);
#332=UNCERTAINTY_MEASURE_WITH_UNIT(LENGTH_MEASURE(2.E-5),#338,
'DISTANCE_ACCURACY_VALUE','Maximum Tolerance applied to model');
#333=(
NAMED_UNIT(*)
SI_UNIT($,.STERADIAN.)
SOLID_ANGLE_UNIT()
);
#334=(
CONVERSION_BASED_UNIT('DEGREE',#336)
NAMED_UNIT(#335)
PLANE_ANGLE_UNIT()
);
#335=DIMENSIONAL_EXPONENTS(0.,0.,0.,0.,0.,0.,0.);
#336=PLANE_ANGLE_MEASURE_WITH_UNIT(PLANE_ANGLE_MEASURE(0.0174532925),#337);
#337=(
NAMED_UNIT(*)
PLANE_ANGLE_UNIT()
SI_UNIT($,.RADIAN.)
);
#338=(
LENGTH_UNIT()
NAMED_UNIT(*)
SI_UNIT(.MILLI.,.METRE.)
);
ENDSEC;
END-ISO-10303-21;
