ISO-10303-21;
HEADER;
/* Generated by software containing ST-Developer
 * from STEP Tools, Inc. (www.steptools.com) 
 */
/* OPTION: using custom schema-name function */

FILE_DESCRIPTION(
/* description */ (''),
/* implementation_level */ '2;1');

FILE_NAME(
/* name */ 'TOOL.STP',
/* time_stamp */ '2023-03-20T04:44:34+01:00',
/* author */ (''),
/* organization */ ('SMS'),
/* preprocessor_version */ 'ST-DEVELOPER v16.7',
/* originating_system */ 'SIEMENS PLM Software NX 12.0',
/* authorisation */ '');

FILE_SCHEMA (('AUTOMOTIVE_DESIGN { 1 0 10303 214 3 1 1 1 }'));
ENDSEC;

DATA;
#10=CONSTRUCTIVE_GEOMETRY_REPRESENTATION_RELATIONSHIP(
'supplemental geometry','',#26,#11);
#11=CONSTRUCTIVE_GEOMETRY_REPRESENTATION('supplemental geometry',(#242,
#243,#244),#403);
#12=GEOMETRICALLY_BOUNDED_WIREFRAME_SHAPE_REPRESENTATION('Tool-None',(#27),
#403);
#13=SHAPE_REPRESENTATION_RELATIONSHIP('None',
'relationship between Tool-None and Tool-None',#26,#15);
#14=SHAPE_REPRESENTATION_RELATIONSHIP('None',
'relationship between Tool-None and Tool-None',#26,#12);
#15=ADVANCED_BREP_SHAPE_REPRESENTATION('Tool-None',(#39,#40),#403);
#16=SHAPE_DEFINITION_REPRESENTATION(#17,#26);
#17=PRODUCT_DEFINITION_SHAPE('','',#18);
#18=PRODUCT_DEFINITION(' ','',#20,#19);
#19=PRODUCT_DEFINITION_CONTEXT('part definition',#25,'design');
#20=PRODUCT_DEFINITION_FORMATION_WITH_SPECIFIED_SOURCE(' ',' ',#22,
 .NOT_KNOWN.);
#21=PRODUCT_RELATED_PRODUCT_CATEGORY('part','',(#22));
#22=PRODUCT('Tool','Tool',' ',(#23));
#23=PRODUCT_CONTEXT(' ',#25,'mechanical');
#24=APPLICATION_PROTOCOL_DEFINITION('international standard',
'automotive_design',2010,#25);
#25=APPLICATION_CONTEXT(
'core data for automotive mechanical design processes');
#26=SHAPE_REPRESENTATION('Tool-None',(#241),#403);
#27=GEOMETRIC_CURVE_SET('None',(#328,#329,#330,#208));
#28=TOROIDAL_SURFACE('',#265,8.5,4.);
#29=SURFACE_STYLE_USAGE(.BOTH.,#31);
#30=SURFACE_STYLE_USAGE(.BOTH.,#32);
#31=SURFACE_SIDE_STYLE('',(#33));
#32=SURFACE_SIDE_STYLE('',(#34));
#33=SURFACE_STYLE_FILL_AREA(#35);
#34=SURFACE_STYLE_FILL_AREA(#36);
#35=FILL_AREA_STYLE('',(#37));
#36=FILL_AREA_STYLE('',(#38));
#37=FILL_AREA_STYLE_COLOUR('',#239);
#38=FILL_AREA_STYLE_COLOUR('',#240);
#39=MANIFOLD_SOLID_BREP('NOCUT',#41);
#40=MANIFOLD_SOLID_BREP('CUT',#42);
#41=CLOSED_SHELL('',(#65,#66,#67,#68,#69,#70,#71,#72,#73));
#42=CLOSED_SHELL('',(#74,#75,#76,#77));
#43=CONICAL_SURFACE('',#253,11.5,45.0000000000001);
#44=B_SPLINE_CURVE_WITH_KNOTS('',3,(#374,#375,#376,#377),.UNSPECIFIED.,
 .F.,.F.,(4,4),(0.,1.),.UNSPECIFIED.);
#45=B_SPLINE_CURVE_WITH_KNOTS('',3,(#378,#379,#380,#381),.UNSPECIFIED.,
 .F.,.F.,(4,4),(0.,1.),.UNSPECIFIED.);
#46=PLANE('',#252);
#47=PLANE('',#254);
#48=PLANE('',#255);
#49=PLANE('',#256);
#50=PLANE('',#257);
#51=PLANE('',#258);
#52=PLANE('',#259);
#53=PLANE('',#264);
#54=PLANE('',#266);
#55=FACE_OUTER_BOUND('',#90,.T.);
#56=FACE_OUTER_BOUND('',#91,.T.);
#57=FACE_OUTER_BOUND('',#92,.T.);
#58=FACE_OUTER_BOUND('',#93,.T.);
#59=FACE_OUTER_BOUND('',#94,.T.);
#60=FACE_OUTER_BOUND('',#95,.T.);
#61=FACE_OUTER_BOUND('',#96,.T.);
#62=FACE_OUTER_BOUND('',#97,.T.);
#63=FACE_OUTER_BOUND('',#100,.T.);
#64=FACE_OUTER_BOUND('',#103,.T.);
#65=ADVANCED_FACE('',(#80,#81,#82),#78,.T.);
#66=ADVANCED_FACE('',(#55),#46,.F.);
#67=ADVANCED_FACE('',(#56),#43,.T.);
#68=ADVANCED_FACE('',(#57),#47,.T.);
#69=ADVANCED_FACE('',(#58),#48,.T.);
#70=ADVANCED_FACE('',(#59),#49,.T.);
#71=ADVANCED_FACE('',(#60),#50,.T.);
#72=ADVANCED_FACE('',(#61),#51,.T.);
#73=ADVANCED_FACE('',(#62),#52,.T.);
#74=ADVANCED_FACE('',(#83,#84),#79,.T.);
#75=ADVANCED_FACE('',(#63),#53,.F.);
#76=ADVANCED_FACE('',(#85,#86),#28,.T.);
#77=ADVANCED_FACE('',(#64),#54,.T.);
#78=CYLINDRICAL_SURFACE('',#250,12.5);
#79=CYLINDRICAL_SURFACE('',#262,12.5);
#80=FACE_BOUND('',#87,.T.);
#81=FACE_BOUND('',#88,.T.);
#82=FACE_BOUND('',#89,.T.);
#83=FACE_BOUND('',#98,.T.);
#84=FACE_BOUND('',#99,.T.);
#85=FACE_BOUND('',#101,.T.);
#86=FACE_BOUND('',#102,.T.);
#87=EDGE_LOOP('',(#113,#114,#115,#116));
#88=EDGE_LOOP('',(#117,#118,#119,#120));
#89=EDGE_LOOP('',(#121));
#90=EDGE_LOOP('',(#122,#123));
#91=EDGE_LOOP('',(#124,#125,#126,#127));
#92=EDGE_LOOP('',(#128,#129,#130,#131,#132,#133));
#93=EDGE_LOOP('',(#134,#135));
#94=EDGE_LOOP('',(#136,#137));
#95=EDGE_LOOP('',(#138,#139,#140,#141));
#96=EDGE_LOOP('',(#142,#143));
#97=EDGE_LOOP('',(#144));
#98=EDGE_LOOP('',(#145));
#99=EDGE_LOOP('',(#146));
#100=EDGE_LOOP('',(#147));
#101=EDGE_LOOP('',(#148));
#102=EDGE_LOOP('',(#149));
#103=EDGE_LOOP('',(#150));
#104=CIRCLE('',#246,12.5);
#105=CIRCLE('',#249,12.5);
#106=CIRCLE('',#251,11.5);
#107=CIRCLE('',#260,12.5);
#108=CIRCLE('',#261,12.5);
#109=CIRCLE('',#263,8.5);
#110=ELLIPSE('',#245,17.6776695296637,12.5);
#111=ELLIPSE('',#247,17.6776695296637,12.5);
#112=ELLIPSE('',#248,17.6776695296637,12.5);
#113=ORIENTED_EDGE('',*,*,#165,.F.);
#114=ORIENTED_EDGE('',*,*,#166,.F.);
#115=ORIENTED_EDGE('',*,*,#167,.F.);
#116=ORIENTED_EDGE('',*,*,#168,.T.);
#117=ORIENTED_EDGE('',*,*,#169,.F.);
#118=ORIENTED_EDGE('',*,*,#170,.F.);
#119=ORIENTED_EDGE('',*,*,#171,.F.);
#120=ORIENTED_EDGE('',*,*,#172,.F.);
#121=ORIENTED_EDGE('',*,*,#173,.F.);
#122=ORIENTED_EDGE('',*,*,#174,.F.);
#123=ORIENTED_EDGE('',*,*,#175,.T.);
#124=ORIENTED_EDGE('',*,*,#168,.F.);
#125=ORIENTED_EDGE('',*,*,#176,.T.);
#126=ORIENTED_EDGE('',*,*,#175,.F.);
#127=ORIENTED_EDGE('',*,*,#177,.T.);
#128=ORIENTED_EDGE('',*,*,#167,.T.);
#129=ORIENTED_EDGE('',*,*,#178,.F.);
#130=ORIENTED_EDGE('',*,*,#165,.T.);
#131=ORIENTED_EDGE('',*,*,#177,.F.);
#132=ORIENTED_EDGE('',*,*,#174,.T.);
#133=ORIENTED_EDGE('',*,*,#176,.F.);
#134=ORIENTED_EDGE('',*,*,#166,.T.);
#135=ORIENTED_EDGE('',*,*,#178,.T.);
#136=ORIENTED_EDGE('',*,*,#169,.T.);
#137=ORIENTED_EDGE('',*,*,#179,.F.);
#138=ORIENTED_EDGE('',*,*,#170,.T.);
#139=ORIENTED_EDGE('',*,*,#179,.T.);
#140=ORIENTED_EDGE('',*,*,#172,.T.);
#141=ORIENTED_EDGE('',*,*,#180,.F.);
#142=ORIENTED_EDGE('',*,*,#171,.T.);
#143=ORIENTED_EDGE('',*,*,#180,.T.);
#144=ORIENTED_EDGE('',*,*,#173,.T.);
#145=ORIENTED_EDGE('',*,*,#181,.T.);
#146=ORIENTED_EDGE('',*,*,#182,.F.);
#147=ORIENTED_EDGE('',*,*,#183,.T.);
#148=ORIENTED_EDGE('',*,*,#183,.F.);
#149=ORIENTED_EDGE('',*,*,#181,.F.);
#150=ORIENTED_EDGE('',*,*,#182,.T.);
#151=VERTEX_POINT('',#351);
#152=VERTEX_POINT('',#352);
#153=VERTEX_POINT('',#354);
#154=VERTEX_POINT('',#356);
#155=VERTEX_POINT('',#359);
#156=VERTEX_POINT('',#360);
#157=VERTEX_POINT('',#362);
#158=VERTEX_POINT('',#364);
#159=VERTEX_POINT('',#367);
#160=VERTEX_POINT('',#370);
#161=VERTEX_POINT('',#371);
#162=VERTEX_POINT('',#393);
#163=VERTEX_POINT('',#395);
#164=VERTEX_POINT('',#398);
#165=EDGE_CURVE('',#151,#152,#184,.T.);
#166=EDGE_CURVE('',#153,#151,#110,.T.);
#167=EDGE_CURVE('',#154,#153,#185,.T.);
#168=EDGE_CURVE('',#154,#152,#104,.T.);
#169=EDGE_CURVE('',#155,#156,#111,.T.);
#170=EDGE_CURVE('',#157,#155,#186,.T.);
#171=EDGE_CURVE('',#158,#157,#112,.T.);
#172=EDGE_CURVE('',#156,#158,#187,.T.);
#173=EDGE_CURVE('',#159,#159,#105,.T.);
#174=EDGE_CURVE('',#160,#161,#188,.T.);
#175=EDGE_CURVE('',#160,#161,#106,.T.);
#176=EDGE_CURVE('',#154,#161,#44,.T.);
#177=EDGE_CURVE('',#160,#152,#45,.T.);
#178=EDGE_CURVE('',#151,#153,#189,.T.);
#179=EDGE_CURVE('',#155,#156,#190,.T.);
#180=EDGE_CURVE('',#157,#158,#191,.T.);
#181=EDGE_CURVE('',#162,#162,#107,.T.);
#182=EDGE_CURVE('',#163,#163,#108,.T.);
#183=EDGE_CURVE('',#164,#164,#109,.T.);
#184=LINE('',#350,#192);
#185=LINE('',#355,#193);
#186=LINE('',#361,#194);
#187=LINE('',#365,#195);
#188=LINE('',#369,#196);
#189=LINE('',#383,#197);
#190=LINE('',#386,#198);
#191=LINE('',#388,#199);
#192=VECTOR('',#275,1.);
#193=VECTOR('',#278,1.);
#194=VECTOR('',#283,1.);
#195=VECTOR('',#286,1.);
#196=VECTOR('',#291,1.);
#197=VECTOR('',#298,1.);
#198=VECTOR('',#303,1.);
#199=VECTOR('',#306,1.);
#200=CURVE_STYLE('',#204,POSITIVE_LENGTH_MEASURE(0.18),#211);
#201=CURVE_STYLE('',#205,POSITIVE_LENGTH_MEASURE(0.13),#238);
#202=CURVE_STYLE('',#206,POSITIVE_LENGTH_MEASURE(0.18),#237);
#203=CURVE_STYLE('',#207,POSITIVE_LENGTH_MEASURE(0.18),#237);
#204=DRAUGHTING_PRE_DEFINED_CURVE_FONT('continuous');
#205=DRAUGHTING_PRE_DEFINED_CURVE_FONT('continuous');
#206=DRAUGHTING_PRE_DEFINED_CURVE_FONT('continuous');
#207=DRAUGHTING_PRE_DEFINED_CURVE_FONT('continuous');
#208=TRIMMED_CURVE('CUTTING PART LINE',#209,(PARAMETER_VALUE(0.)),(
PARAMETER_VALUE(1.)),.T.,.PARAMETER.);
#209=(
BOUNDED_CURVE()
B_SPLINE_CURVE(3,(#331,#332,#333,#334,#335,#336,#337,#338,#339,#340,#341,
#342,#343,#344,#345,#346),.UNSPECIFIED.,.T.,.F.)
B_SPLINE_CURVE_WITH_KNOTS((1,3,3,3,3,3,3,1),(-0.0509654685791384,0.,0.373124687566684,
0.474517265710025,0.88008757828339,0.949034531420862,1.,1.37312468756668),
 .UNSPECIFIED.)
CURVE()
GEOMETRIC_REPRESENTATION_ITEM()
RATIONAL_B_SPLINE_CURVE((1.,1.,1.,1.,1.,1.,1.,1.,1.,1.,1.,1.,1.,0.804737854124365,
0.804737854124365,1.))
REPRESENTATION_ITEM('CUTTING PART LINE')
);
#210=DRAUGHTING_PRE_DEFINED_COLOUR('white');
#211=DRAUGHTING_PRE_DEFINED_COLOUR('blue');
#212=PRESENTATION_LAYER_ASSIGNMENT('1','Layer 1',(#328,#329,#330,#208,#242,
#243,#244,#39,#40));
#213=STYLED_ITEM('',(#222),#328);
#214=STYLED_ITEM('',(#223),#329);
#215=STYLED_ITEM('',(#224),#330);
#216=STYLED_ITEM('',(#225),#208);
#217=STYLED_ITEM('',(#226),#242);
#218=STYLED_ITEM('',(#227),#243);
#219=STYLED_ITEM('',(#228),#244);
#220=STYLED_ITEM('',(#229),#39);
#221=STYLED_ITEM('',(#230),#40);
#222=PRESENTATION_STYLE_ASSIGNMENT((#231));
#223=PRESENTATION_STYLE_ASSIGNMENT((#232));
#224=PRESENTATION_STYLE_ASSIGNMENT((#233));
#225=PRESENTATION_STYLE_ASSIGNMENT((#200));
#226=PRESENTATION_STYLE_ASSIGNMENT((#201));
#227=PRESENTATION_STYLE_ASSIGNMENT((#202));
#228=PRESENTATION_STYLE_ASSIGNMENT((#203));
#229=PRESENTATION_STYLE_ASSIGNMENT((#29));
#230=PRESENTATION_STYLE_ASSIGNMENT((#30));
#231=POINT_STYLE('',#234,POSITIVE_LENGTH_MEASURE(3.),#237);
#232=POINT_STYLE('',#235,POSITIVE_LENGTH_MEASURE(3.),#210);
#233=POINT_STYLE('',#236,POSITIVE_LENGTH_MEASURE(3.),#237);
#234=PRE_DEFINED_POINT_MARKER_SYMBOL('plus');
#235=PRE_DEFINED_POINT_MARKER_SYMBOL('plus');
#236=PRE_DEFINED_POINT_MARKER_SYMBOL('plus');
#237=COLOUR_RGB('Medium Maroon',0.6,0.4,0.4);
#238=COLOUR_RGB('Silver Gray',0.6,0.6,0.6);
#239=COLOUR_RGB('TLS_NOCUT',0.498023956664378,0.498023956664378,0.498023956664378);
#240=COLOUR_RGB('TLS_CUT',0.8,0.8,0.8);
#241=AXIS2_PLACEMENT_3D('',#327,#267,#268);
#242=AXIS2_PLACEMENT_3D('PCS',#347,#269,#270);
#243=AXIS2_PLACEMENT_3D('MCS',#348,#271,#272);
#244=AXIS2_PLACEMENT_3D('CIP',#349,#273,#274);
#245=AXIS2_PLACEMENT_3D('',#353,#276,#277);
#246=AXIS2_PLACEMENT_3D('',#357,#279,#280);
#247=AXIS2_PLACEMENT_3D('',#358,#281,#282);
#248=AXIS2_PLACEMENT_3D('',#363,#284,#285);
#249=AXIS2_PLACEMENT_3D('',#366,#287,#288);
#250=AXIS2_PLACEMENT_3D('',#368,#289,#290);
#251=AXIS2_PLACEMENT_3D('',#372,#292,#293);
#252=AXIS2_PLACEMENT_3D('',#373,#294,#295);
#253=AXIS2_PLACEMENT_3D('',#382,#296,#297);
#254=AXIS2_PLACEMENT_3D('',#384,#299,#300);
#255=AXIS2_PLACEMENT_3D('',#385,#301,#302);
#256=AXIS2_PLACEMENT_3D('',#387,#304,#305);
#257=AXIS2_PLACEMENT_3D('',#389,#307,#308);
#258=AXIS2_PLACEMENT_3D('',#390,#309,#310);
#259=AXIS2_PLACEMENT_3D('',#391,#311,#312);
#260=AXIS2_PLACEMENT_3D('',#392,#313,#314);
#261=AXIS2_PLACEMENT_3D('',#394,#315,#316);
#262=AXIS2_PLACEMENT_3D('',#396,#317,#318);
#263=AXIS2_PLACEMENT_3D('',#397,#319,#320);
#264=AXIS2_PLACEMENT_3D('',#399,#321,#322);
#265=AXIS2_PLACEMENT_3D('',#400,#323,#324);
#266=AXIS2_PLACEMENT_3D('',#401,#325,#326);
#267=DIRECTION('',(0.,0.,1.));
#268=DIRECTION('',(1.,0.,0.));
#269=DIRECTION('',(0.,0.,1.));
#270=DIRECTION('',(1.,0.,0.));
#271=DIRECTION('',(0.,0.,1.));
#272=DIRECTION('',(1.,0.,0.));
#273=DIRECTION('',(0.,0.,1.));
#274=DIRECTION('',(1.,0.,0.));
#275=DIRECTION('',(0.,0.,1.));
#276=DIRECTION('',(0.,0.707106781186548,0.707106781186547));
#277=DIRECTION('',(0.,-0.707106781186547,0.707106781186548));
#278=DIRECTION('',(0.,0.,-1.));
#279=DIRECTION('',(0.,0.,-1.));
#280=DIRECTION('',(-1.,0.,0.));
#281=DIRECTION('',(0.,0.707106781186548,-0.707106781186548));
#282=DIRECTION('',(0.,0.707106781186548,0.707106781186548));
#283=DIRECTION('',(0.,0.,1.));
#284=DIRECTION('',(0.,0.707106781186549,0.707106781186546));
#285=DIRECTION('',(0.,-0.707106781186546,0.707106781186549));
#286=DIRECTION('',(0.,0.,-1.));
#287=DIRECTION('',(0.,0.,-1.));
#288=DIRECTION('',(-1.,0.,0.));
#289=DIRECTION('',(0.,0.,1.));
#290=DIRECTION('',(1.,0.,0.));
#291=DIRECTION('',(1.,0.,0.));
#292=DIRECTION('',(0.,0.,1.));
#293=DIRECTION('',(-1.,0.,0.));
#294=DIRECTION('',(0.,0.,-1.));
#295=DIRECTION('',(-1.,0.,0.));
#296=DIRECTION('',(0.,0.,-1.));
#297=DIRECTION('',(-1.,0.,0.));
#298=DIRECTION('',(1.,0.,0.));
#299=DIRECTION('',(0.,1.,0.));
#300=DIRECTION('',(0.,0.,-1.));
#301=DIRECTION('',(0.,0.707106781186548,0.707106781186547));
#302=DIRECTION('',(0.,0.707106781186547,-0.707106781186548));
#303=DIRECTION('',(1.,0.,0.));
#304=DIRECTION('',(0.,0.707106781186548,-0.707106781186548));
#305=DIRECTION('',(0.,-0.707106781186548,-0.707106781186548));
#306=DIRECTION('',(1.,0.,0.));
#307=DIRECTION('',(0.,1.,-1.44560289664734E-16));
#308=DIRECTION('',(0.,-1.43982048506075E-16,-1.));
#309=DIRECTION('',(0.,0.707106781186549,0.707106781186546));
#310=DIRECTION('',(0.,0.707106781186546,-0.707106781186549));
#311=DIRECTION('',(0.,0.,-1.));
#312=DIRECTION('',(-1.,0.,0.));
#313=DIRECTION('',(0.,0.,1.));
#314=DIRECTION('',(1.,0.,0.));
#315=DIRECTION('',(0.,0.,1.));
#316=DIRECTION('',(1.,0.,0.));
#317=DIRECTION('',(0.,0.,1.));
#318=DIRECTION('',(1.,0.,0.));
#319=DIRECTION('',(0.,0.,-1.));
#320=DIRECTION('',(1.,0.,0.));
#321=DIRECTION('',(0.,0.,1.));
#322=DIRECTION('',(1.,0.,0.));
#323=DIRECTION('',(0.,0.,1.));
#324=DIRECTION('',(1.,0.,0.));
#325=DIRECTION('',(0.,0.,1.));
#326=DIRECTION('',(1.,0.,0.));
#327=CARTESIAN_POINT('',(0.,0.,0.));
#328=CARTESIAN_POINT('',(0.,0.,-56.));
#329=CARTESIAN_POINT('CRP',(-12.5,0.,-130.));
#330=CARTESIAN_POINT('CIP_DCSYS',(0.,0.,-130.));
#331=CARTESIAN_POINT('',(-12.5,0.,-126.));
#332=CARTESIAN_POINT('',(-12.5,0.,-110.666666666667));
#333=CARTESIAN_POINT('',(-12.5,0.,-95.3333333333333));
#334=CARTESIAN_POINT('',(-12.5,0.,-80.));
#335=CARTESIAN_POINT('',(-8.33333333333334,0.,-80.));
#336=CARTESIAN_POINT('',(-4.16666666666667,0.,-80.));
#337=CARTESIAN_POINT('',(0.,0.,-80.));
#338=CARTESIAN_POINT('',(0.,0.,-96.6666666666667));
#339=CARTESIAN_POINT('',(0.,0.,-113.333333333333));
#340=CARTESIAN_POINT('',(0.,0.,-130.));
#341=CARTESIAN_POINT('',(-2.83333333333333,0.,-130.));
#342=CARTESIAN_POINT('',(-5.66666666666667,0.,-130.));
#343=CARTESIAN_POINT('',(-8.5,0.,-130.));
#344=CARTESIAN_POINT('',(-10.8431457505076,0.,-130.));
#345=CARTESIAN_POINT('',(-12.5,0.,-128.343145750508));
#346=CARTESIAN_POINT('',(-12.5,0.,-126.));
#347=CARTESIAN_POINT('',(0.,0.,0.));
#348=CARTESIAN_POINT('',(0.,0.,-56.));
#349=CARTESIAN_POINT('',(0.,0.,-130.));
#350=CARTESIAN_POINT('',(-6.78232998312528,10.5,0.));
#351=CARTESIAN_POINT('',(-6.78232998312528,10.5,-17.));
#352=CARTESIAN_POINT('',(-6.78232998312528,10.5,-0.999999999999997));
#353=CARTESIAN_POINT('',(0.,0.,-6.5));
#354=CARTESIAN_POINT('',(6.78232998312528,10.5,-17.));
#355=CARTESIAN_POINT('',(6.78232998312528,10.5,0.));
#356=CARTESIAN_POINT('',(6.78232998312528,10.5,-0.999999999999997));
#357=CARTESIAN_POINT('',(0.,0.,-0.999999999999997));
#358=CARTESIAN_POINT('',(0.,0.,-36.5));
#359=CARTESIAN_POINT('',(-6.78232998312527,10.5,-26.));
#360=CARTESIAN_POINT('',(6.78232998312528,10.5,-26.));
#361=CARTESIAN_POINT('',(-6.78232998312528,10.5,-1.51788304147971E-15));
#362=CARTESIAN_POINT('',(-6.78232998312527,10.5,-38.));
#363=CARTESIAN_POINT('',(0.,0.,-27.4999999999999));
#364=CARTESIAN_POINT('',(6.78232998312527,10.5,-38.));
#365=CARTESIAN_POINT('',(6.78232998312528,10.5,-1.51788304147971E-15));
#366=CARTESIAN_POINT('',(0.,0.,-80.));
#367=CARTESIAN_POINT('',(-12.5,0.,-80.));
#368=CARTESIAN_POINT('',(0.,0.,0.));
#369=CARTESIAN_POINT('',(0.,10.5,0.));
#370=CARTESIAN_POINT('',(-4.69041575982344,10.5,-1.23795024519963E-16));
#371=CARTESIAN_POINT('',(4.69041575982344,10.5,0.));
#372=CARTESIAN_POINT('',(0.,0.,0.));
#373=CARTESIAN_POINT('',(0.,12.5,0.));
#374=CARTESIAN_POINT('',(6.78232998312528,10.5,-0.999999999999997));
#375=CARTESIAN_POINT('',(6.1018010621907,10.5,-0.63075426361292));
#376=CARTESIAN_POINT('',(5.40395096505582,10.5,-0.291024067113982));
#377=CARTESIAN_POINT('',(4.69041575982344,10.5,3.88610844072734E-16));
#378=CARTESIAN_POINT('',(-4.69041575982344,10.5,-1.88966873347019E-15));
#379=CARTESIAN_POINT('',(-5.40445364369694,10.5,-0.291229090750545));
#380=CARTESIAN_POINT('',(-6.1056876934673,10.5,-0.632863096880171));
#381=CARTESIAN_POINT('',(-6.78232998312528,10.5,-0.999999999999999));
#382=CARTESIAN_POINT('',(0.,0.,0.));
#383=CARTESIAN_POINT('',(10.,10.5,-17.));
#384=CARTESIAN_POINT('',(10.,10.5,2.));
#385=CARTESIAN_POINT('',(10.,10.5,-17.));
#386=CARTESIAN_POINT('',(10.,10.5,-26.));
#387=CARTESIAN_POINT('',(10.,12.5,-24.));
#388=CARTESIAN_POINT('',(10.,10.5,-38.));
#389=CARTESIAN_POINT('',(10.,10.5,-26.));
#390=CARTESIAN_POINT('',(10.,12.5,-40.));
#391=CARTESIAN_POINT('',(0.,0.,-80.));
#392=CARTESIAN_POINT('',(0.,0.,-126.));
#393=CARTESIAN_POINT('',(12.5,0.,-126.));
#394=CARTESIAN_POINT('',(0.,0.,-80.));
#395=CARTESIAN_POINT('',(12.5,0.,-80.));
#396=CARTESIAN_POINT('',(0.,0.,0.));
#397=CARTESIAN_POINT('',(0.,0.,-130.));
#398=CARTESIAN_POINT('',(8.5,0.,-130.));
#399=CARTESIAN_POINT('',(0.,0.,-130.));
#400=CARTESIAN_POINT('',(0.,0.,-126.));
#401=CARTESIAN_POINT('',(0.,0.,-80.));
#402=MECHANICAL_DESIGN_GEOMETRIC_PRESENTATION_REPRESENTATION('',(#213,#214,
#215,#216,#217,#218,#219,#220,#221),#403);
#403=(
GEOMETRIC_REPRESENTATION_CONTEXT(3)
GLOBAL_UNCERTAINTY_ASSIGNED_CONTEXT((#404))
GLOBAL_UNIT_ASSIGNED_CONTEXT((#410,#406,#405))
REPRESENTATION_CONTEXT('TOOL','TOP_LEVEL_ASSEMBLY_PART')
);
#404=UNCERTAINTY_MEASURE_WITH_UNIT(LENGTH_MEASURE(0.0508),#410,
'DISTANCE_ACCURACY_VALUE','Maximum Tolerance applied to model');
#405=(
NAMED_UNIT(*)
SI_UNIT($,.STERADIAN.)
SOLID_ANGLE_UNIT()
);
#406=(
CONVERSION_BASED_UNIT('DEGREE',#408)
NAMED_UNIT(#407)
PLANE_ANGLE_UNIT()
);
#407=DIMENSIONAL_EXPONENTS(0.,0.,0.,0.,0.,0.,0.);
#408=PLANE_ANGLE_MEASURE_WITH_UNIT(PLANE_ANGLE_MEASURE(0.0174532925),#409);
#409=(
NAMED_UNIT(*)
PLANE_ANGLE_UNIT()
SI_UNIT($,.RADIAN.)
);
#410=(
LENGTH_UNIT()
NAMED_UNIT(*)
SI_UNIT(.MILLI.,.METRE.)
);
ENDSEC;
END-ISO-10303-21;
