ISO-10303-21;
HEADER;
/* Generated by software containing ST-Developer
 * from STEP Tools, Inc. (www.steptools.com) 
 */
/* OPTION: using custom schema-name function */

FILE_DESCRIPTION(
/* description */ (''),
/* implementation_level */ '2;1');

FILE_NAME(
/* name */ 'TOOL.STP',
/* time_stamp */ '2023-03-20T04:41:47+01:00',
/* author */ (''),
/* organization */ ('SMS'),
/* preprocessor_version */ 'ST-DEVELOPER v16.7',
/* originating_system */ 'SIEMENS PLM Software NX 12.0',
/* authorisation */ '');

FILE_SCHEMA (('AUTOMOTIVE_DESIGN { 1 0 10303 214 3 1 1 1 }'));
ENDSEC;

DATA;
#10=CONSTRUCTIVE_GEOMETRY_REPRESENTATION_RELATIONSHIP(
'supplemental geometry','',#26,#11);
#11=CONSTRUCTIVE_GEOMETRY_REPRESENTATION('supplemental geometry',(#243,
#244,#245),#405);
#12=GEOMETRICALLY_BOUNDED_WIREFRAME_SHAPE_REPRESENTATION('Tool-None',(#27),
#405);
#13=SHAPE_REPRESENTATION_RELATIONSHIP('None',
'relationship between Tool-None and Tool-None',#26,#15);
#14=SHAPE_REPRESENTATION_RELATIONSHIP('None',
'relationship between Tool-None and Tool-None',#26,#12);
#15=ADVANCED_BREP_SHAPE_REPRESENTATION('Tool-None',(#38,#39),#405);
#16=SHAPE_DEFINITION_REPRESENTATION(#17,#26);
#17=PRODUCT_DEFINITION_SHAPE('','',#18);
#18=PRODUCT_DEFINITION(' ','',#20,#19);
#19=PRODUCT_DEFINITION_CONTEXT('part definition',#25,'design');
#20=PRODUCT_DEFINITION_FORMATION_WITH_SPECIFIED_SOURCE(' ',' ',#22,
 .NOT_KNOWN.);
#21=PRODUCT_RELATED_PRODUCT_CATEGORY('part','',(#22));
#22=PRODUCT('Tool','Tool',' ',(#23));
#23=PRODUCT_CONTEXT(' ',#25,'mechanical');
#24=APPLICATION_PROTOCOL_DEFINITION('international standard',
'automotive_design',2010,#25);
#25=APPLICATION_CONTEXT(
'core data for automotive mechanical design processes');
#26=SHAPE_REPRESENTATION('Tool-None',(#242),#405);
#27=GEOMETRIC_CURVE_SET('None',(#340,#341,#342,#210));
#28=SURFACE_STYLE_USAGE(.BOTH.,#30);
#29=SURFACE_STYLE_USAGE(.BOTH.,#31);
#30=SURFACE_SIDE_STYLE('',(#32));
#31=SURFACE_SIDE_STYLE('',(#33));
#32=SURFACE_STYLE_FILL_AREA(#34);
#33=SURFACE_STYLE_FILL_AREA(#35);
#34=FILL_AREA_STYLE('',(#36));
#35=FILL_AREA_STYLE('',(#37));
#36=FILL_AREA_STYLE_COLOUR('',#240);
#37=FILL_AREA_STYLE_COLOUR('',#241);
#38=MANIFOLD_SOLID_BREP('NOCUT',#40);
#39=MANIFOLD_SOLID_BREP('CUT',#41);
#40=CLOSED_SHELL('',(#61,#62,#63,#64,#65,#66,#67,#68,#69,#70,#71,#72));
#41=CLOSED_SHELL('',(#73,#74,#75));
#42=PLANE('',#262);
#43=PLANE('',#264);
#44=PLANE('',#265);
#45=PLANE('',#266);
#46=PLANE('',#267);
#47=PLANE('',#269);
#48=PLANE('',#271);
#49=FACE_OUTER_BOUND('',#119,.T.);
#50=FACE_OUTER_BOUND('',#122,.T.);
#51=FACE_OUTER_BOUND('',#123,.T.);
#52=FACE_OUTER_BOUND('',#124,.T.);
#53=FACE_OUTER_BOUND('',#125,.T.);
#54=FACE_OUTER_BOUND('',#126,.T.);
#55=FACE_OUTER_BOUND('',#127,.T.);
#56=TOROIDAL_SURFACE('',#259,6.76,1.);
#57=TOROIDAL_SURFACE('',#260,6.76,1.);
#58=CONICAL_SURFACE('',#252,5.76,30.0000000000007);
#59=CONICAL_SURFACE('',#255,6.,30.0000000000004);
#60=CONICAL_SURFACE('',#263,5.2,45.0000000000001);
#61=ADVANCED_FACE('',(#89,#90,#91),#76,.T.);
#62=ADVANCED_FACE('',(#92,#93),#58,.T.);
#63=ADVANCED_FACE('',(#94,#95),#59,.T.);
#64=ADVANCED_FACE('',(#96,#97),#77,.T.);
#65=ADVANCED_FACE('',(#98,#99),#56,.F.);
#66=ADVANCED_FACE('',(#100,#101),#57,.F.);
#67=ADVANCED_FACE('',(#49),#42,.F.);
#68=ADVANCED_FACE('',(#102,#103),#60,.T.);
#69=ADVANCED_FACE('',(#50),#43,.T.);
#70=ADVANCED_FACE('',(#51),#44,.T.);
#71=ADVANCED_FACE('',(#52),#45,.T.);
#72=ADVANCED_FACE('',(#53),#46,.T.);
#73=ADVANCED_FACE('',(#54),#47,.T.);
#74=ADVANCED_FACE('',(#55),#48,.F.);
#75=ADVANCED_FACE('',(#104,#105),#78,.T.);
#76=CYLINDRICAL_SURFACE('',#250,6.);
#77=CYLINDRICAL_SURFACE('',#258,5.76);
#78=CYLINDRICAL_SURFACE('',#272,6.);
#79=LINE('',#366,#83);
#80=LINE('',#370,#84);
#81=LINE('',#391,#85);
#82=LINE('',#393,#86);
#83=VECTOR('',#287,1.);
#84=VECTOR('',#290,1.);
#85=VECTOR('',#319,1.);
#86=VECTOR('',#322,1.);
#87=ELLIPSE('',#248,8.48528137423856,6.);
#88=ELLIPSE('',#249,8.48528137423858,6.);
#89=FACE_BOUND('',#106,.T.);
#90=FACE_BOUND('',#107,.T.);
#91=FACE_BOUND('',#108,.T.);
#92=FACE_BOUND('',#109,.T.);
#93=FACE_BOUND('',#110,.T.);
#94=FACE_BOUND('',#111,.T.);
#95=FACE_BOUND('',#112,.T.);
#96=FACE_BOUND('',#113,.T.);
#97=FACE_BOUND('',#114,.T.);
#98=FACE_BOUND('',#115,.T.);
#99=FACE_BOUND('',#116,.T.);
#100=FACE_BOUND('',#117,.T.);
#101=FACE_BOUND('',#118,.T.);
#102=FACE_BOUND('',#120,.T.);
#103=FACE_BOUND('',#121,.T.);
#104=FACE_BOUND('',#128,.T.);
#105=FACE_BOUND('',#129,.T.);
#106=EDGE_LOOP('',(#130));
#107=EDGE_LOOP('',(#131));
#108=EDGE_LOOP('',(#132,#133,#134,#135));
#109=EDGE_LOOP('',(#136));
#110=EDGE_LOOP('',(#137));
#111=EDGE_LOOP('',(#138));
#112=EDGE_LOOP('',(#139));
#113=EDGE_LOOP('',(#140));
#114=EDGE_LOOP('',(#141));
#115=EDGE_LOOP('',(#142));
#116=EDGE_LOOP('',(#143));
#117=EDGE_LOOP('',(#144));
#118=EDGE_LOOP('',(#145));
#119=EDGE_LOOP('',(#146));
#120=EDGE_LOOP('',(#147));
#121=EDGE_LOOP('',(#148));
#122=EDGE_LOOP('',(#149,#150));
#123=EDGE_LOOP('',(#151,#152,#153,#154));
#124=EDGE_LOOP('',(#155,#156));
#125=EDGE_LOOP('',(#157));
#126=EDGE_LOOP('',(#158));
#127=EDGE_LOOP('',(#159));
#128=EDGE_LOOP('',(#160));
#129=EDGE_LOOP('',(#161));
#130=ORIENTED_EDGE('',*,*,#176,.T.);
#131=ORIENTED_EDGE('',*,*,#177,.T.);
#132=ORIENTED_EDGE('',*,*,#178,.F.);
#133=ORIENTED_EDGE('',*,*,#179,.F.);
#134=ORIENTED_EDGE('',*,*,#180,.F.);
#135=ORIENTED_EDGE('',*,*,#181,.F.);
#136=ORIENTED_EDGE('',*,*,#182,.T.);
#137=ORIENTED_EDGE('',*,*,#176,.F.);
#138=ORIENTED_EDGE('',*,*,#183,.T.);
#139=ORIENTED_EDGE('',*,*,#184,.F.);
#140=ORIENTED_EDGE('',*,*,#185,.T.);
#141=ORIENTED_EDGE('',*,*,#186,.T.);
#142=ORIENTED_EDGE('',*,*,#186,.F.);
#143=ORIENTED_EDGE('',*,*,#182,.F.);
#144=ORIENTED_EDGE('',*,*,#183,.F.);
#145=ORIENTED_EDGE('',*,*,#185,.F.);
#146=ORIENTED_EDGE('',*,*,#187,.T.);
#147=ORIENTED_EDGE('',*,*,#177,.F.);
#148=ORIENTED_EDGE('',*,*,#187,.F.);
#149=ORIENTED_EDGE('',*,*,#178,.T.);
#150=ORIENTED_EDGE('',*,*,#188,.F.);
#151=ORIENTED_EDGE('',*,*,#179,.T.);
#152=ORIENTED_EDGE('',*,*,#188,.T.);
#153=ORIENTED_EDGE('',*,*,#181,.T.);
#154=ORIENTED_EDGE('',*,*,#189,.F.);
#155=ORIENTED_EDGE('',*,*,#180,.T.);
#156=ORIENTED_EDGE('',*,*,#189,.T.);
#157=ORIENTED_EDGE('',*,*,#184,.T.);
#158=ORIENTED_EDGE('',*,*,#190,.T.);
#159=ORIENTED_EDGE('',*,*,#191,.F.);
#160=ORIENTED_EDGE('',*,*,#190,.F.);
#161=ORIENTED_EDGE('',*,*,#191,.T.);
#162=VERTEX_POINT('',#360);
#163=VERTEX_POINT('',#362);
#164=VERTEX_POINT('',#364);
#165=VERTEX_POINT('',#365);
#166=VERTEX_POINT('',#367);
#167=VERTEX_POINT('',#369);
#168=VERTEX_POINT('',#373);
#169=VERTEX_POINT('',#376);
#170=VERTEX_POINT('',#378);
#171=VERTEX_POINT('',#381);
#172=VERTEX_POINT('',#383);
#173=VERTEX_POINT('',#388);
#174=VERTEX_POINT('',#398);
#175=VERTEX_POINT('',#401);
#176=EDGE_CURVE('',#162,#162,#192,.T.);
#177=EDGE_CURVE('',#163,#163,#193,.T.);
#178=EDGE_CURVE('',#164,#165,#87,.T.);
#179=EDGE_CURVE('',#166,#164,#79,.T.);
#180=EDGE_CURVE('',#167,#166,#88,.T.);
#181=EDGE_CURVE('',#165,#167,#80,.T.);
#182=EDGE_CURVE('',#168,#168,#194,.T.);
#183=EDGE_CURVE('',#169,#169,#195,.T.);
#184=EDGE_CURVE('',#170,#170,#196,.T.);
#185=EDGE_CURVE('',#171,#171,#197,.T.);
#186=EDGE_CURVE('',#172,#172,#198,.T.);
#187=EDGE_CURVE('',#173,#173,#199,.T.);
#188=EDGE_CURVE('',#164,#165,#81,.T.);
#189=EDGE_CURVE('',#166,#167,#82,.T.);
#190=EDGE_CURVE('',#174,#174,#200,.T.);
#191=EDGE_CURVE('',#175,#175,#201,.T.);
#192=CIRCLE('',#246,6.);
#193=CIRCLE('',#247,6.);
#194=CIRCLE('',#251,5.89397459621556);
#195=CIRCLE('',#253,5.89397459621557);
#196=CIRCLE('',#254,6.);
#197=CIRCLE('',#256,5.76);
#198=CIRCLE('',#257,5.76);
#199=CIRCLE('',#261,5.2);
#200=CIRCLE('',#268,6.);
#201=CIRCLE('',#270,6.);
#202=CURVE_STYLE('',#206,POSITIVE_LENGTH_MEASURE(0.18),#212);
#203=CURVE_STYLE('',#207,POSITIVE_LENGTH_MEASURE(0.13),#239);
#204=CURVE_STYLE('',#208,POSITIVE_LENGTH_MEASURE(0.18),#238);
#205=CURVE_STYLE('',#209,POSITIVE_LENGTH_MEASURE(0.18),#238);
#206=DRAUGHTING_PRE_DEFINED_CURVE_FONT('continuous');
#207=DRAUGHTING_PRE_DEFINED_CURVE_FONT('continuous');
#208=DRAUGHTING_PRE_DEFINED_CURVE_FONT('continuous');
#209=DRAUGHTING_PRE_DEFINED_CURVE_FONT('continuous');
#210=B_SPLINE_CURVE_WITH_KNOTS('CUTTING PART LINE',3,(#343,#344,#345,#346,
#347,#348,#349,#350,#351,#352,#353,#354,#355),.UNSPECIFIED.,.T.,.F.,(4,
3,3,3,4),(0.,0.375000000001563,0.5,0.875000000001563,1.),.UNSPECIFIED.);
#211=DRAUGHTING_PRE_DEFINED_COLOUR('white');
#212=DRAUGHTING_PRE_DEFINED_COLOUR('blue');
#213=PRESENTATION_LAYER_ASSIGNMENT('1','Layer 1',(#340,#341,#342,#210,#243,
#244,#245,#38,#39));
#214=STYLED_ITEM('',(#223),#340);
#215=STYLED_ITEM('',(#224),#341);
#216=STYLED_ITEM('',(#225),#342);
#217=STYLED_ITEM('',(#226),#210);
#218=STYLED_ITEM('',(#227),#243);
#219=STYLED_ITEM('',(#228),#244);
#220=STYLED_ITEM('',(#229),#245);
#221=STYLED_ITEM('',(#230),#38);
#222=STYLED_ITEM('',(#231),#39);
#223=PRESENTATION_STYLE_ASSIGNMENT((#232));
#224=PRESENTATION_STYLE_ASSIGNMENT((#233));
#225=PRESENTATION_STYLE_ASSIGNMENT((#234));
#226=PRESENTATION_STYLE_ASSIGNMENT((#202));
#227=PRESENTATION_STYLE_ASSIGNMENT((#203));
#228=PRESENTATION_STYLE_ASSIGNMENT((#204));
#229=PRESENTATION_STYLE_ASSIGNMENT((#205));
#230=PRESENTATION_STYLE_ASSIGNMENT((#28));
#231=PRESENTATION_STYLE_ASSIGNMENT((#29));
#232=POINT_STYLE('',#235,POSITIVE_LENGTH_MEASURE(3.),#238);
#233=POINT_STYLE('',#236,POSITIVE_LENGTH_MEASURE(3.),#211);
#234=POINT_STYLE('',#237,POSITIVE_LENGTH_MEASURE(3.),#238);
#235=PRE_DEFINED_POINT_MARKER_SYMBOL('plus');
#236=PRE_DEFINED_POINT_MARKER_SYMBOL('plus');
#237=PRE_DEFINED_POINT_MARKER_SYMBOL('plus');
#238=COLOUR_RGB('Medium Maroon',0.6,0.4,0.4);
#239=COLOUR_RGB('Silver Gray',0.6,0.6,0.6);
#240=COLOUR_RGB('TLS_NOCUT',0.498023956664378,0.498023956664378,0.498023956664378);
#241=COLOUR_RGB('TLS_CUT',0.8,0.8,0.8);
#242=AXIS2_PLACEMENT_3D('',#339,#273,#274);
#243=AXIS2_PLACEMENT_3D('PCS',#356,#275,#276);
#244=AXIS2_PLACEMENT_3D('MCS',#357,#277,#278);
#245=AXIS2_PLACEMENT_3D('CIP',#358,#279,#280);
#246=AXIS2_PLACEMENT_3D('',#359,#281,#282);
#247=AXIS2_PLACEMENT_3D('',#361,#283,#284);
#248=AXIS2_PLACEMENT_3D('',#363,#285,#286);
#249=AXIS2_PLACEMENT_3D('',#368,#288,#289);
#250=AXIS2_PLACEMENT_3D('',#371,#291,#292);
#251=AXIS2_PLACEMENT_3D('',#372,#293,#294);
#252=AXIS2_PLACEMENT_3D('',#374,#295,#296);
#253=AXIS2_PLACEMENT_3D('',#375,#297,#298);
#254=AXIS2_PLACEMENT_3D('',#377,#299,#300);
#255=AXIS2_PLACEMENT_3D('',#379,#301,#302);
#256=AXIS2_PLACEMENT_3D('',#380,#303,#304);
#257=AXIS2_PLACEMENT_3D('',#382,#305,#306);
#258=AXIS2_PLACEMENT_3D('',#384,#307,#308);
#259=AXIS2_PLACEMENT_3D('',#385,#309,#310);
#260=AXIS2_PLACEMENT_3D('',#386,#311,#312);
#261=AXIS2_PLACEMENT_3D('',#387,#313,#314);
#262=AXIS2_PLACEMENT_3D('',#389,#315,#316);
#263=AXIS2_PLACEMENT_3D('',#390,#317,#318);
#264=AXIS2_PLACEMENT_3D('',#392,#320,#321);
#265=AXIS2_PLACEMENT_3D('',#394,#323,#324);
#266=AXIS2_PLACEMENT_3D('',#395,#325,#326);
#267=AXIS2_PLACEMENT_3D('',#396,#327,#328);
#268=AXIS2_PLACEMENT_3D('',#397,#329,#330);
#269=AXIS2_PLACEMENT_3D('',#399,#331,#332);
#270=AXIS2_PLACEMENT_3D('',#400,#333,#334);
#271=AXIS2_PLACEMENT_3D('',#402,#335,#336);
#272=AXIS2_PLACEMENT_3D('',#403,#337,#338);
#273=DIRECTION('',(0.,0.,1.));
#274=DIRECTION('',(1.,0.,0.));
#275=DIRECTION('',(0.,0.,1.));
#276=DIRECTION('',(1.,0.,0.));
#277=DIRECTION('',(0.,0.,1.));
#278=DIRECTION('',(1.,0.,0.));
#279=DIRECTION('',(0.,0.,1.));
#280=DIRECTION('',(1.,0.,0.));
#281=DIRECTION('',(0.,0.,1.));
#282=DIRECTION('',(1.,0.,0.));
#283=DIRECTION('',(0.,0.,-1.));
#284=DIRECTION('',(-1.,0.,0.));
#285=DIRECTION('',(0.,0.707106781186547,-0.707106781186548));
#286=DIRECTION('',(0.,0.707106781186548,0.707106781186547));
#287=DIRECTION('',(0.,0.,1.));
#288=DIRECTION('',(0.,0.707106781186548,0.707106781186547));
#289=DIRECTION('',(0.,-0.707106781186547,0.707106781186548));
#290=DIRECTION('',(0.,0.,-1.));
#291=DIRECTION('',(0.,0.,1.));
#292=DIRECTION('',(1.,0.,0.));
#293=DIRECTION('',(0.,0.,1.));
#294=DIRECTION('',(1.,0.,0.));
#295=DIRECTION('',(0.,0.,1.));
#296=DIRECTION('',(1.,0.,-8.3298579863552E-17));
#297=DIRECTION('',(0.,0.,-1.));
#298=DIRECTION('',(-1.,0.,0.));
#299=DIRECTION('',(0.,0.,-1.));
#300=DIRECTION('',(-1.,0.,0.));
#301=DIRECTION('',(0.,0.,-1.));
#302=DIRECTION('',(-1.,0.,9.51592107917795E-17));
#303=DIRECTION('',(0.,0.,1.));
#304=DIRECTION('',(1.,0.,0.));
#305=DIRECTION('',(0.,0.,-1.));
#306=DIRECTION('',(1.,0.,0.));
#307=DIRECTION('',(0.,0.,1.));
#308=DIRECTION('',(1.,0.,0.));
#309=DIRECTION('',(0.,0.,1.));
#310=DIRECTION('',(1.,0.,0.));
#311=DIRECTION('',(0.,0.,1.));
#312=DIRECTION('',(1.,0.,0.));
#313=DIRECTION('',(0.,0.,1.));
#314=DIRECTION('',(-1.,0.,0.));
#315=DIRECTION('',(0.,0.,-1.));
#316=DIRECTION('',(-1.,0.,0.));
#317=DIRECTION('',(0.,0.,-1.));
#318=DIRECTION('',(-1.,0.,0.));
#319=DIRECTION('',(1.,0.,0.));
#320=DIRECTION('',(0.,0.707106781186547,-0.707106781186548));
#321=DIRECTION('',(0.,-0.707106781186548,-0.707106781186547));
#322=DIRECTION('',(1.,0.,0.));
#323=DIRECTION('',(0.,1.,-1.0842021724855E-16));
#324=DIRECTION('',(0.,-1.0842021724855E-16,-1.));
#325=DIRECTION('',(0.,0.707106781186548,0.707106781186547));
#326=DIRECTION('',(0.,0.707106781186547,-0.707106781186548));
#327=DIRECTION('',(0.,0.,-1.));
#328=DIRECTION('',(-1.,0.,0.));
#329=DIRECTION('',(0.,0.,1.));
#330=DIRECTION('',(1.,0.,0.));
#331=DIRECTION('',(0.,0.,1.));
#332=DIRECTION('',(1.,0.,0.));
#333=DIRECTION('',(0.,0.,1.));
#334=DIRECTION('',(1.,0.,0.));
#335=DIRECTION('',(0.,0.,1.));
#336=DIRECTION('',(1.,0.,0.));
#337=DIRECTION('',(0.,0.,1.));
#338=DIRECTION('',(1.,0.,0.));
#339=CARTESIAN_POINT('',(0.,0.,0.));
#340=CARTESIAN_POINT('',(0.,0.,-45.));
#341=CARTESIAN_POINT('CRP',(-6.,0.,-83.));
#342=CARTESIAN_POINT('CIP_DCSYS',(0.,0.,-83.));
#343=CARTESIAN_POINT('',(0.,0.,-83.));
#344=CARTESIAN_POINT('',(0.,0.,-77.));
#345=CARTESIAN_POINT('',(0.,0.,-71.));
#346=CARTESIAN_POINT('',(0.,0.,-65.));
#347=CARTESIAN_POINT('',(-2.,0.,-65.));
#348=CARTESIAN_POINT('',(-4.,0.,-65.));
#349=CARTESIAN_POINT('',(-6.,0.,-65.));
#350=CARTESIAN_POINT('',(-6.,0.,-71.));
#351=CARTESIAN_POINT('',(-6.,0.,-77.));
#352=CARTESIAN_POINT('',(-6.,0.,-83.));
#353=CARTESIAN_POINT('',(-4.,0.,-83.));
#354=CARTESIAN_POINT('',(-2.,0.,-83.));
#355=CARTESIAN_POINT('',(0.,0.,-83.));
#356=CARTESIAN_POINT('',(0.,0.,0.));
#357=CARTESIAN_POINT('',(0.,0.,-45.));
#358=CARTESIAN_POINT('',(0.,0.,-83.));
#359=CARTESIAN_POINT('',(0.,0.,-46.3140375359132));
#360=CARTESIAN_POINT('',(6.,0.,-46.3140375359132));
#361=CARTESIAN_POINT('',(0.,0.,-0.799999999999999));
#362=CARTESIAN_POINT('',(-6.,0.,-0.799999999999999));
#363=CARTESIAN_POINT('',(0.,0.,-22.9));
#364=CARTESIAN_POINT('',(-4.07921561087423,4.4,-18.5));
#365=CARTESIAN_POINT('',(4.07921561087423,4.4,-18.5));
#366=CARTESIAN_POINT('',(-4.07921561087423,4.4,20.9080749503476));
#367=CARTESIAN_POINT('',(-4.07921561087424,4.39999999999999,-26.5));
#368=CARTESIAN_POINT('',(0.,0.,-22.1));
#369=CARTESIAN_POINT('',(4.07921561087424,4.39999999999999,-26.5));
#370=CARTESIAN_POINT('',(4.07921561087423,4.4,20.9080749503476));
#371=CARTESIAN_POINT('',(0.,0.,20.9080749503476));
#372=CARTESIAN_POINT('',(0.,0.,-46.4976789221609));
#373=CARTESIAN_POINT('',(5.89397459621556,0.,-46.4976789221609));
#374=CARTESIAN_POINT('',(0.,0.,-46.7297297297297));
#375=CARTESIAN_POINT('',(0.,0.,-64.8163586137524));
#376=CARTESIAN_POINT('',(-5.89397459621557,0.,-64.8163586137524));
#377=CARTESIAN_POINT('',(0.,0.,-65.));
#378=CARTESIAN_POINT('',(-6.,0.,-65.));
#379=CARTESIAN_POINT('',(0.,0.,-65.));
#380=CARTESIAN_POINT('',(0.,0.,-64.3163586137524));
#381=CARTESIAN_POINT('',(5.76,0.,-64.3163586137524));
#382=CARTESIAN_POINT('',(0.,0.,-46.9976789221609));
#383=CARTESIAN_POINT('',(5.76,0.,-46.9976789221609));
#384=CARTESIAN_POINT('',(0.,0.,0.));
#385=CARTESIAN_POINT('',(0.,0.,-46.9976789221609));
#386=CARTESIAN_POINT('',(0.,0.,-64.3163586137524));
#387=CARTESIAN_POINT('',(0.,0.,0.));
#388=CARTESIAN_POINT('',(-5.2,0.,0.));
#389=CARTESIAN_POINT('',(0.,6.,0.));
#390=CARTESIAN_POINT('',(0.,0.,0.));
#391=CARTESIAN_POINT('',(10.,4.4,-18.5));
#392=CARTESIAN_POINT('',(10.,6.,-16.9));
#393=CARTESIAN_POINT('',(10.,4.39999999999999,-26.5));
#394=CARTESIAN_POINT('',(10.,4.4,-18.5));
#395=CARTESIAN_POINT('',(10.,6.,-28.1));
#396=CARTESIAN_POINT('',(0.,0.,-65.));
#397=CARTESIAN_POINT('',(0.,0.,-65.));
#398=CARTESIAN_POINT('',(6.,0.,-65.));
#399=CARTESIAN_POINT('',(0.,0.,-65.));
#400=CARTESIAN_POINT('',(0.,0.,-83.));
#401=CARTESIAN_POINT('',(6.,0.,-83.));
#402=CARTESIAN_POINT('',(0.,0.,-83.));
#403=CARTESIAN_POINT('',(0.,0.,0.));
#404=MECHANICAL_DESIGN_GEOMETRIC_PRESENTATION_REPRESENTATION('',(#214,#215,
#216,#217,#218,#219,#220,#221,#222),#405);
#405=(
GEOMETRIC_REPRESENTATION_CONTEXT(3)
GLOBAL_UNCERTAINTY_ASSIGNED_CONTEXT((#406))
GLOBAL_UNIT_ASSIGNED_CONTEXT((#412,#408,#407))
REPRESENTATION_CONTEXT('TOOL','TOP_LEVEL_ASSEMBLY_PART')
);
#406=UNCERTAINTY_MEASURE_WITH_UNIT(LENGTH_MEASURE(2.E-5),#412,
'DISTANCE_ACCURACY_VALUE','Maximum Tolerance applied to model');
#407=(
NAMED_UNIT(*)
SI_UNIT($,.STERADIAN.)
SOLID_ANGLE_UNIT()
);
#408=(
CONVERSION_BASED_UNIT('DEGREE',#410)
NAMED_UNIT(#409)
PLANE_ANGLE_UNIT()
);
#409=DIMENSIONAL_EXPONENTS(0.,0.,0.,0.,0.,0.,0.);
#410=PLANE_ANGLE_MEASURE_WITH_UNIT(PLANE_ANGLE_MEASURE(0.0174532925),#411);
#411=(
NAMED_UNIT(*)
PLANE_ANGLE_UNIT()
SI_UNIT($,.RADIAN.)
);
#412=(
LENGTH_UNIT()
NAMED_UNIT(*)
SI_UNIT(.MILLI.,.METRE.)
);
ENDSEC;
END-ISO-10303-21;
