ISO-10303-21;
HEADER;
/* Generated by software containing ST-Developer
 * from STEP Tools, Inc. (www.steptools.com) 
 */
/* OPTION: using custom schema-name function */

FILE_DESCRIPTION(
/* description */ (''),
/* implementation_level */ '2;1');

FILE_NAME(
/* name */ 'TOOL.STP',
/* time_stamp */ '2023-03-20T04:43:00+01:00',
/* author */ (''),
/* organization */ ('SMS'),
/* preprocessor_version */ 'ST-DEVELOPER v16.7',
/* originating_system */ 'SIEMENS PLM Software NX 12.0',
/* authorisation */ '');

FILE_SCHEMA (('AUTOMOTIVE_DESIGN { 1 0 10303 214 3 1 1 1 }'));
ENDSEC;

DATA;
#10=CONSTRUCTIVE_GEOMETRY_REPRESENTATION_RELATIONSHIP(
'supplemental geometry','',#26,#11);
#11=CONSTRUCTIVE_GEOMETRY_REPRESENTATION('supplemental geometry',(#285,
#286,#287),#479);
#12=GEOMETRICALLY_BOUNDED_WIREFRAME_SHAPE_REPRESENTATION('Tool-None',(#27),
#479);
#13=SHAPE_REPRESENTATION_RELATIONSHIP('None',
'relationship between Tool-None and Tool-None',#26,#15);
#14=SHAPE_REPRESENTATION_RELATIONSHIP('None',
'relationship between Tool-None and Tool-None',#26,#12);
#15=ADVANCED_BREP_SHAPE_REPRESENTATION('Tool-None',(#38,#39),#479);
#16=SHAPE_DEFINITION_REPRESENTATION(#17,#26);
#17=PRODUCT_DEFINITION_SHAPE('','',#18);
#18=PRODUCT_DEFINITION(' ','',#20,#19);
#19=PRODUCT_DEFINITION_CONTEXT('part definition',#25,'design');
#20=PRODUCT_DEFINITION_FORMATION_WITH_SPECIFIED_SOURCE(' ',' ',#22,
 .NOT_KNOWN.);
#21=PRODUCT_RELATED_PRODUCT_CATEGORY('part','',(#22));
#22=PRODUCT('Tool','Tool',' ',(#23));
#23=PRODUCT_CONTEXT(' ',#25,'mechanical');
#24=APPLICATION_PROTOCOL_DEFINITION('international standard',
'automotive_design',2010,#25);
#25=APPLICATION_CONTEXT(
'core data for automotive mechanical design processes');
#26=SHAPE_REPRESENTATION('Tool-None',(#284),#479);
#27=GEOMETRIC_CURVE_SET('None',(#395,#396,#397,#250));
#28=SURFACE_STYLE_USAGE(.BOTH.,#30);
#29=SURFACE_STYLE_USAGE(.BOTH.,#31);
#30=SURFACE_SIDE_STYLE('',(#32));
#31=SURFACE_SIDE_STYLE('',(#33));
#32=SURFACE_STYLE_FILL_AREA(#34);
#33=SURFACE_STYLE_FILL_AREA(#35);
#34=FILL_AREA_STYLE('',(#36));
#35=FILL_AREA_STYLE('',(#37));
#36=FILL_AREA_STYLE_COLOUR('',#282);
#37=FILL_AREA_STYLE_COLOUR('',#283);
#38=MANIFOLD_SOLID_BREP('NOCUT',#40);
#39=MANIFOLD_SOLID_BREP('CUT',#41);
#40=CLOSED_SHELL('',(#68,#69,#70,#71,#72,#73,#74,#75,#76,#77,#78,#79,#80,
#81));
#41=CLOSED_SHELL('',(#82,#83,#84));
#42=TOROIDAL_SURFACE('',#305,13.,1.);
#43=TOROIDAL_SURFACE('',#306,13.,1.);
#44=CONICAL_SURFACE('',#296,11.5,45.0000000000001);
#45=CONICAL_SURFACE('',#298,12.,30.0000000000001);
#46=CONICAL_SURFACE('',#301,12.5,30.0000000000001);
#47=CYLINDRICAL_SURFACE('',#295,12.5);
#48=CYLINDRICAL_SURFACE('',#304,12.);
#49=CYLINDRICAL_SURFACE('',#317,12.5);
#50=FACE_BOUND('',#105,.T.);
#51=FACE_BOUND('',#106,.T.);
#52=FACE_BOUND('',#107,.T.);
#53=FACE_BOUND('',#109,.T.);
#54=FACE_BOUND('',#110,.T.);
#55=FACE_BOUND('',#111,.T.);
#56=FACE_BOUND('',#112,.T.);
#57=FACE_BOUND('',#113,.T.);
#58=FACE_BOUND('',#114,.T.);
#59=FACE_BOUND('',#115,.T.);
#60=FACE_BOUND('',#116,.T.);
#61=FACE_BOUND('',#117,.T.);
#62=FACE_BOUND('',#118,.T.);
#63=FACE_BOUND('',#127,.T.);
#64=FACE_BOUND('',#128,.T.);
#65=ELLIPSE('',#290,17.6776695296637,12.5);
#66=ELLIPSE('',#291,17.6776695296637,12.5);
#67=ELLIPSE('',#293,17.6776695296637,12.5);
#68=ADVANCED_FACE('',(#94),#85,.F.);
#69=ADVANCED_FACE('',(#50,#51,#52),#47,.T.);
#70=ADVANCED_FACE('',(#95),#44,.T.);
#71=ADVANCED_FACE('',(#53,#54),#45,.T.);
#72=ADVANCED_FACE('',(#55,#56),#46,.T.);
#73=ADVANCED_FACE('',(#57,#58),#48,.T.);
#74=ADVANCED_FACE('',(#59,#60),#42,.F.);
#75=ADVANCED_FACE('',(#61,#62),#43,.F.);
#76=ADVANCED_FACE('',(#96),#86,.T.);
#77=ADVANCED_FACE('',(#97),#87,.T.);
#78=ADVANCED_FACE('',(#98),#88,.T.);
#79=ADVANCED_FACE('',(#99),#89,.T.);
#80=ADVANCED_FACE('',(#100),#90,.T.);
#81=ADVANCED_FACE('',(#101),#91,.T.);
#82=ADVANCED_FACE('',(#102),#92,.T.);
#83=ADVANCED_FACE('',(#103),#93,.F.);
#84=ADVANCED_FACE('',(#63,#64),#49,.T.);
#85=PLANE('',#289);
#86=PLANE('',#307);
#87=PLANE('',#308);
#88=PLANE('',#309);
#89=PLANE('',#310);
#90=PLANE('',#311);
#91=PLANE('',#312);
#92=PLANE('',#314);
#93=PLANE('',#316);
#94=FACE_OUTER_BOUND('',#104,.T.);
#95=FACE_OUTER_BOUND('',#108,.T.);
#96=FACE_OUTER_BOUND('',#119,.T.);
#97=FACE_OUTER_BOUND('',#120,.T.);
#98=FACE_OUTER_BOUND('',#121,.T.);
#99=FACE_OUTER_BOUND('',#122,.T.);
#100=FACE_OUTER_BOUND('',#123,.T.);
#101=FACE_OUTER_BOUND('',#124,.T.);
#102=FACE_OUTER_BOUND('',#125,.T.);
#103=FACE_OUTER_BOUND('',#126,.T.);
#104=EDGE_LOOP('',(#139,#140));
#105=EDGE_LOOP('',(#141,#142,#143,#144));
#106=EDGE_LOOP('',(#145));
#107=EDGE_LOOP('',(#146,#147,#148,#149));
#108=EDGE_LOOP('',(#150,#151,#152,#153));
#109=EDGE_LOOP('',(#154));
#110=EDGE_LOOP('',(#155));
#111=EDGE_LOOP('',(#156));
#112=EDGE_LOOP('',(#157));
#113=EDGE_LOOP('',(#158));
#114=EDGE_LOOP('',(#159));
#115=EDGE_LOOP('',(#160));
#116=EDGE_LOOP('',(#161));
#117=EDGE_LOOP('',(#162));
#118=EDGE_LOOP('',(#163));
#119=EDGE_LOOP('',(#164,#165,#166,#167,#168,#169));
#120=EDGE_LOOP('',(#170,#171));
#121=EDGE_LOOP('',(#172,#173));
#122=EDGE_LOOP('',(#174,#175,#176,#177));
#123=EDGE_LOOP('',(#178,#179));
#124=EDGE_LOOP('',(#180));
#125=EDGE_LOOP('',(#181));
#126=EDGE_LOOP('',(#182));
#127=EDGE_LOOP('',(#183));
#128=EDGE_LOOP('',(#184));
#129=CIRCLE('',#288,11.5);
#130=CIRCLE('',#292,12.5);
#131=CIRCLE('',#294,12.5);
#132=CIRCLE('',#297,12.1339745962156);
#133=CIRCLE('',#299,12.1339745962156);
#134=CIRCLE('',#300,12.5);
#135=CIRCLE('',#302,12.);
#136=CIRCLE('',#303,12.);
#137=CIRCLE('',#313,12.5);
#138=CIRCLE('',#315,12.5);
#139=ORIENTED_EDGE('',*,*,#203,.F.);
#140=ORIENTED_EDGE('',*,*,#204,.T.);
#141=ORIENTED_EDGE('',*,*,#205,.F.);
#142=ORIENTED_EDGE('',*,*,#206,.F.);
#143=ORIENTED_EDGE('',*,*,#207,.F.);
#144=ORIENTED_EDGE('',*,*,#208,.F.);
#145=ORIENTED_EDGE('',*,*,#209,.T.);
#146=ORIENTED_EDGE('',*,*,#210,.F.);
#147=ORIENTED_EDGE('',*,*,#211,.F.);
#148=ORIENTED_EDGE('',*,*,#212,.F.);
#149=ORIENTED_EDGE('',*,*,#213,.T.);
#150=ORIENTED_EDGE('',*,*,#213,.F.);
#151=ORIENTED_EDGE('',*,*,#214,.T.);
#152=ORIENTED_EDGE('',*,*,#204,.F.);
#153=ORIENTED_EDGE('',*,*,#215,.T.);
#154=ORIENTED_EDGE('',*,*,#216,.T.);
#155=ORIENTED_EDGE('',*,*,#209,.F.);
#156=ORIENTED_EDGE('',*,*,#217,.T.);
#157=ORIENTED_EDGE('',*,*,#218,.F.);
#158=ORIENTED_EDGE('',*,*,#219,.T.);
#159=ORIENTED_EDGE('',*,*,#220,.T.);
#160=ORIENTED_EDGE('',*,*,#220,.F.);
#161=ORIENTED_EDGE('',*,*,#216,.F.);
#162=ORIENTED_EDGE('',*,*,#217,.F.);
#163=ORIENTED_EDGE('',*,*,#219,.F.);
#164=ORIENTED_EDGE('',*,*,#212,.T.);
#165=ORIENTED_EDGE('',*,*,#221,.F.);
#166=ORIENTED_EDGE('',*,*,#210,.T.);
#167=ORIENTED_EDGE('',*,*,#215,.F.);
#168=ORIENTED_EDGE('',*,*,#203,.T.);
#169=ORIENTED_EDGE('',*,*,#214,.F.);
#170=ORIENTED_EDGE('',*,*,#211,.T.);
#171=ORIENTED_EDGE('',*,*,#221,.T.);
#172=ORIENTED_EDGE('',*,*,#205,.T.);
#173=ORIENTED_EDGE('',*,*,#222,.F.);
#174=ORIENTED_EDGE('',*,*,#206,.T.);
#175=ORIENTED_EDGE('',*,*,#222,.T.);
#176=ORIENTED_EDGE('',*,*,#208,.T.);
#177=ORIENTED_EDGE('',*,*,#223,.F.);
#178=ORIENTED_EDGE('',*,*,#207,.T.);
#179=ORIENTED_EDGE('',*,*,#223,.T.);
#180=ORIENTED_EDGE('',*,*,#218,.T.);
#181=ORIENTED_EDGE('',*,*,#224,.T.);
#182=ORIENTED_EDGE('',*,*,#225,.F.);
#183=ORIENTED_EDGE('',*,*,#224,.F.);
#184=ORIENTED_EDGE('',*,*,#225,.T.);
#185=VERTEX_POINT('',#415);
#186=VERTEX_POINT('',#416);
#187=VERTEX_POINT('',#420);
#188=VERTEX_POINT('',#421);
#189=VERTEX_POINT('',#423);
#190=VERTEX_POINT('',#425);
#191=VERTEX_POINT('',#428);
#192=VERTEX_POINT('',#430);
#193=VERTEX_POINT('',#431);
#194=VERTEX_POINT('',#433);
#195=VERTEX_POINT('',#435);
#196=VERTEX_POINT('',#448);
#197=VERTEX_POINT('',#451);
#198=VERTEX_POINT('',#453);
#199=VERTEX_POINT('',#456);
#200=VERTEX_POINT('',#458);
#201=VERTEX_POINT('',#472);
#202=VERTEX_POINT('',#475);
#203=EDGE_CURVE('',#185,#186,#226,.T.);
#204=EDGE_CURVE('',#185,#186,#129,.T.);
#205=EDGE_CURVE('',#187,#188,#65,.T.);
#206=EDGE_CURVE('',#189,#187,#227,.T.);
#207=EDGE_CURVE('',#190,#189,#66,.T.);
#208=EDGE_CURVE('',#188,#190,#228,.T.);
#209=EDGE_CURVE('',#191,#191,#130,.T.);
#210=EDGE_CURVE('',#192,#193,#229,.T.);
#211=EDGE_CURVE('',#194,#192,#67,.T.);
#212=EDGE_CURVE('',#195,#194,#230,.T.);
#213=EDGE_CURVE('',#195,#193,#131,.T.);
#214=EDGE_CURVE('',#195,#186,#251,.T.);
#215=EDGE_CURVE('',#185,#193,#252,.T.);
#216=EDGE_CURVE('',#196,#196,#132,.T.);
#217=EDGE_CURVE('',#197,#197,#133,.T.);
#218=EDGE_CURVE('',#198,#198,#134,.T.);
#219=EDGE_CURVE('',#199,#199,#135,.T.);
#220=EDGE_CURVE('',#200,#200,#136,.T.);
#221=EDGE_CURVE('',#192,#194,#231,.T.);
#222=EDGE_CURVE('',#187,#188,#232,.T.);
#223=EDGE_CURVE('',#189,#190,#233,.T.);
#224=EDGE_CURVE('',#201,#201,#137,.T.);
#225=EDGE_CURVE('',#202,#202,#138,.T.);
#226=LINE('',#414,#234);
#227=LINE('',#422,#235);
#228=LINE('',#426,#236);
#229=LINE('',#429,#237);
#230=LINE('',#434,#238);
#231=LINE('',#462,#239);
#232=LINE('',#465,#240);
#233=LINE('',#467,#241);
#234=VECTOR('',#326,1.);
#235=VECTOR('',#333,1.);
#236=VECTOR('',#336,1.);
#237=VECTOR('',#339,1.);
#238=VECTOR('',#342,1.);
#239=VECTOR('',#369,1.);
#240=VECTOR('',#374,1.);
#241=VECTOR('',#377,1.);
#242=CURVE_STYLE('',#246,POSITIVE_LENGTH_MEASURE(0.18),#254);
#243=CURVE_STYLE('',#247,POSITIVE_LENGTH_MEASURE(0.13),#281);
#244=CURVE_STYLE('',#248,POSITIVE_LENGTH_MEASURE(0.18),#280);
#245=CURVE_STYLE('',#249,POSITIVE_LENGTH_MEASURE(0.18),#280);
#246=DRAUGHTING_PRE_DEFINED_CURVE_FONT('continuous');
#247=DRAUGHTING_PRE_DEFINED_CURVE_FONT('continuous');
#248=DRAUGHTING_PRE_DEFINED_CURVE_FONT('continuous');
#249=DRAUGHTING_PRE_DEFINED_CURVE_FONT('continuous');
#250=B_SPLINE_CURVE_WITH_KNOTS('CUTTING PART LINE',3,(#398,#399,#400,#401,
#402,#403,#404,#405,#406,#407,#408,#409,#410),.UNSPECIFIED.,.T.,.F.,(4,
3,3,3,4),(0.,0.375,0.5,0.875,1.),.UNSPECIFIED.);
#251=B_SPLINE_CURVE_WITH_KNOTS('',3,(#438,#439,#440,#441),.UNSPECIFIED.,
 .F.,.F.,(4,4),(0.,1.),.UNSPECIFIED.);
#252=B_SPLINE_CURVE_WITH_KNOTS('',3,(#442,#443,#444,#445),.UNSPECIFIED.,
 .F.,.F.,(4,4),(0.,1.),.UNSPECIFIED.);
#253=DRAUGHTING_PRE_DEFINED_COLOUR('white');
#254=DRAUGHTING_PRE_DEFINED_COLOUR('blue');
#255=PRESENTATION_LAYER_ASSIGNMENT('1','Layer 1',(#395,#396,#397,#250,#285,
#286,#287,#38,#39));
#256=STYLED_ITEM('',(#265),#395);
#257=STYLED_ITEM('',(#266),#396);
#258=STYLED_ITEM('',(#267),#397);
#259=STYLED_ITEM('',(#268),#250);
#260=STYLED_ITEM('',(#269),#285);
#261=STYLED_ITEM('',(#270),#286);
#262=STYLED_ITEM('',(#271),#287);
#263=STYLED_ITEM('',(#272),#38);
#264=STYLED_ITEM('',(#273),#39);
#265=PRESENTATION_STYLE_ASSIGNMENT((#274));
#266=PRESENTATION_STYLE_ASSIGNMENT((#275));
#267=PRESENTATION_STYLE_ASSIGNMENT((#276));
#268=PRESENTATION_STYLE_ASSIGNMENT((#242));
#269=PRESENTATION_STYLE_ASSIGNMENT((#243));
#270=PRESENTATION_STYLE_ASSIGNMENT((#244));
#271=PRESENTATION_STYLE_ASSIGNMENT((#245));
#272=PRESENTATION_STYLE_ASSIGNMENT((#28));
#273=PRESENTATION_STYLE_ASSIGNMENT((#29));
#274=POINT_STYLE('',#277,POSITIVE_LENGTH_MEASURE(3.),#280);
#275=POINT_STYLE('',#278,POSITIVE_LENGTH_MEASURE(3.),#253);
#276=POINT_STYLE('',#279,POSITIVE_LENGTH_MEASURE(3.),#280);
#277=PRE_DEFINED_POINT_MARKER_SYMBOL('plus');
#278=PRE_DEFINED_POINT_MARKER_SYMBOL('plus');
#279=PRE_DEFINED_POINT_MARKER_SYMBOL('plus');
#280=COLOUR_RGB('Medium Maroon',0.6,0.4,0.4);
#281=COLOUR_RGB('Silver Gray',0.6,0.6,0.6);
#282=COLOUR_RGB('TLS_NOCUT',0.498023956664378,0.498023956664378,0.498023956664378);
#283=COLOUR_RGB('TLS_CUT',0.8,0.8,0.8);
#284=AXIS2_PLACEMENT_3D('',#394,#318,#319);
#285=AXIS2_PLACEMENT_3D('PCS',#411,#320,#321);
#286=AXIS2_PLACEMENT_3D('MCS',#412,#322,#323);
#287=AXIS2_PLACEMENT_3D('CIP',#413,#324,#325);
#288=AXIS2_PLACEMENT_3D('',#417,#327,#328);
#289=AXIS2_PLACEMENT_3D('',#418,#329,#330);
#290=AXIS2_PLACEMENT_3D('',#419,#331,#332);
#291=AXIS2_PLACEMENT_3D('',#424,#334,#335);
#292=AXIS2_PLACEMENT_3D('',#427,#337,#338);
#293=AXIS2_PLACEMENT_3D('',#432,#340,#341);
#294=AXIS2_PLACEMENT_3D('',#436,#343,#344);
#295=AXIS2_PLACEMENT_3D('',#437,#345,#346);
#296=AXIS2_PLACEMENT_3D('',#446,#347,#348);
#297=AXIS2_PLACEMENT_3D('',#447,#349,#350);
#298=AXIS2_PLACEMENT_3D('',#449,#351,#352);
#299=AXIS2_PLACEMENT_3D('',#450,#353,#354);
#300=AXIS2_PLACEMENT_3D('',#452,#355,#356);
#301=AXIS2_PLACEMENT_3D('',#454,#357,#358);
#302=AXIS2_PLACEMENT_3D('',#455,#359,#360);
#303=AXIS2_PLACEMENT_3D('',#457,#361,#362);
#304=AXIS2_PLACEMENT_3D('',#459,#363,#364);
#305=AXIS2_PLACEMENT_3D('',#460,#365,#366);
#306=AXIS2_PLACEMENT_3D('',#461,#367,#368);
#307=AXIS2_PLACEMENT_3D('',#463,#370,#371);
#308=AXIS2_PLACEMENT_3D('',#464,#372,#373);
#309=AXIS2_PLACEMENT_3D('',#466,#375,#376);
#310=AXIS2_PLACEMENT_3D('',#468,#378,#379);
#311=AXIS2_PLACEMENT_3D('',#469,#380,#381);
#312=AXIS2_PLACEMENT_3D('',#470,#382,#383);
#313=AXIS2_PLACEMENT_3D('',#471,#384,#385);
#314=AXIS2_PLACEMENT_3D('',#473,#386,#387);
#315=AXIS2_PLACEMENT_3D('',#474,#388,#389);
#316=AXIS2_PLACEMENT_3D('',#476,#390,#391);
#317=AXIS2_PLACEMENT_3D('',#477,#392,#393);
#318=DIRECTION('',(0.,0.,1.));
#319=DIRECTION('',(1.,0.,0.));
#320=DIRECTION('',(0.,0.,1.));
#321=DIRECTION('',(1.,0.,0.));
#322=DIRECTION('',(0.,0.,1.));
#323=DIRECTION('',(1.,0.,0.));
#324=DIRECTION('',(0.,0.,1.));
#325=DIRECTION('',(1.,0.,0.));
#326=DIRECTION('',(1.,0.,0.));
#327=DIRECTION('',(0.,0.,1.));
#328=DIRECTION('',(-1.,0.,0.));
#329=DIRECTION('',(0.,0.,-1.));
#330=DIRECTION('',(-1.,0.,0.));
#331=DIRECTION('',(0.,0.707106781186548,-0.707106781186548));
#332=DIRECTION('',(0.,0.707106781186548,0.707106781186548));
#333=DIRECTION('',(0.,0.,1.));
#334=DIRECTION('',(0.,0.707106781186548,0.707106781186547));
#335=DIRECTION('',(0.,-0.707106781186547,0.707106781186548));
#336=DIRECTION('',(0.,0.,-1.));
#337=DIRECTION('',(0.,0.,1.));
#338=DIRECTION('',(1.,0.,0.));
#339=DIRECTION('',(0.,0.,1.));
#340=DIRECTION('',(0.,0.707106781186548,0.707106781186547));
#341=DIRECTION('',(0.,-0.707106781186547,0.707106781186548));
#342=DIRECTION('',(0.,0.,-1.));
#343=DIRECTION('',(0.,0.,-1.));
#344=DIRECTION('',(-1.,0.,0.));
#345=DIRECTION('',(0.,0.,1.));
#346=DIRECTION('',(1.,0.,0.));
#347=DIRECTION('',(0.,0.,-1.));
#348=DIRECTION('',(-1.,0.,0.));
#349=DIRECTION('',(0.,0.,1.));
#350=DIRECTION('',(1.,0.,0.));
#351=DIRECTION('',(0.,0.,1.));
#352=DIRECTION('',(1.,0.,9.4190423137648E-17));
#353=DIRECTION('',(0.,0.,-1.));
#354=DIRECTION('',(-1.,0.,0.));
#355=DIRECTION('',(0.,0.,-1.));
#356=DIRECTION('',(-1.,0.,0.));
#357=DIRECTION('',(0.,0.,-1.));
#358=DIRECTION('',(-1.,0.,1.4116587072391E-16));
#359=DIRECTION('',(0.,0.,1.));
#360=DIRECTION('',(1.,0.,0.));
#361=DIRECTION('',(0.,0.,-1.));
#362=DIRECTION('',(1.,0.,0.));
#363=DIRECTION('',(0.,0.,1.));
#364=DIRECTION('',(1.,0.,0.));
#365=DIRECTION('',(0.,0.,1.));
#366=DIRECTION('',(1.,0.,0.));
#367=DIRECTION('',(0.,0.,1.));
#368=DIRECTION('',(1.,0.,0.));
#369=DIRECTION('',(1.,0.,0.));
#370=DIRECTION('',(0.,1.,0.));
#371=DIRECTION('',(0.,0.,-1.));
#372=DIRECTION('',(0.,0.707106781186548,0.707106781186547));
#373=DIRECTION('',(0.,0.707106781186547,-0.707106781186548));
#374=DIRECTION('',(1.,0.,0.));
#375=DIRECTION('',(0.,0.707106781186548,-0.707106781186548));
#376=DIRECTION('',(0.,-0.707106781186548,-0.707106781186548));
#377=DIRECTION('',(1.,0.,0.));
#378=DIRECTION('',(0.,1.,-1.44560289664734E-16));
#379=DIRECTION('',(0.,-1.43982048506075E-16,-1.));
#380=DIRECTION('',(0.,0.707106781186548,0.707106781186547));
#381=DIRECTION('',(0.,0.707106781186547,-0.707106781186548));
#382=DIRECTION('',(0.,0.,-1.));
#383=DIRECTION('',(-1.,0.,0.));
#384=DIRECTION('',(0.,0.,1.));
#385=DIRECTION('',(1.,0.,0.));
#386=DIRECTION('',(0.,0.,1.));
#387=DIRECTION('',(1.,0.,0.));
#388=DIRECTION('',(0.,0.,1.));
#389=DIRECTION('',(1.,0.,0.));
#390=DIRECTION('',(0.,0.,1.));
#391=DIRECTION('',(1.,0.,0.));
#392=DIRECTION('',(0.,0.,1.));
#393=DIRECTION('',(1.,0.,0.));
#394=CARTESIAN_POINT('',(0.,0.,0.));
#395=CARTESIAN_POINT('',(0.,0.,-56.));
#396=CARTESIAN_POINT('CRP',(-12.5,0.,-135.));
#397=CARTESIAN_POINT('CIP_DCSYS',(0.,0.,-135.));
#398=CARTESIAN_POINT('',(0.,0.,-97.5));
#399=CARTESIAN_POINT('',(0.,0.,-110.));
#400=CARTESIAN_POINT('',(0.,0.,-122.5));
#401=CARTESIAN_POINT('',(0.,0.,-135.));
#402=CARTESIAN_POINT('',(-4.16666666666667,0.,-135.));
#403=CARTESIAN_POINT('',(-8.33333333333333,0.,-135.));
#404=CARTESIAN_POINT('',(-12.5,0.,-135.));
#405=CARTESIAN_POINT('',(-12.5,0.,-122.5));
#406=CARTESIAN_POINT('',(-12.5,0.,-110.));
#407=CARTESIAN_POINT('',(-12.5,0.,-97.5));
#408=CARTESIAN_POINT('',(-8.33333333333333,0.,-97.5));
#409=CARTESIAN_POINT('',(-4.16666666666667,0.,-97.5));
#410=CARTESIAN_POINT('',(0.,0.,-97.5));
#411=CARTESIAN_POINT('',(0.,0.,0.));
#412=CARTESIAN_POINT('',(0.,0.,-56.));
#413=CARTESIAN_POINT('',(0.,0.,-135.));
#414=CARTESIAN_POINT('',(0.,10.5,0.));
#415=CARTESIAN_POINT('',(-4.69041575982344,10.5,-1.23795024519963E-16));
#416=CARTESIAN_POINT('',(4.69041575982344,10.5,0.));
#417=CARTESIAN_POINT('',(0.,0.,0.));
#418=CARTESIAN_POINT('',(0.,12.5,0.));
#419=CARTESIAN_POINT('',(0.,0.,-36.5));
#420=CARTESIAN_POINT('',(-6.78232998312526,10.5,-26.));
#421=CARTESIAN_POINT('',(6.78232998312526,10.5,-26.));
#422=CARTESIAN_POINT('',(-6.78232998312526,10.5,20.9080749503476));
#423=CARTESIAN_POINT('',(-6.78232998312527,10.5,-38.));
#424=CARTESIAN_POINT('',(0.,0.,-27.5));
#425=CARTESIAN_POINT('',(6.78232998312528,10.5,-38.));
#426=CARTESIAN_POINT('',(6.78232998312526,10.5,20.9080749503476));
#427=CARTESIAN_POINT('',(0.,0.,-58.8637043259453));
#428=CARTESIAN_POINT('',(12.5,0.,-58.8637043259453));
#429=CARTESIAN_POINT('',(-6.78232998312528,10.5,20.9080749503476));
#430=CARTESIAN_POINT('',(-6.78232998312527,10.5,-17.));
#431=CARTESIAN_POINT('',(-6.78232998312528,10.5,-0.999999999999997));
#432=CARTESIAN_POINT('',(0.,0.,-6.5));
#433=CARTESIAN_POINT('',(6.78232998312527,10.5,-17.));
#434=CARTESIAN_POINT('',(6.78232998312528,10.5,20.9080749503476));
#435=CARTESIAN_POINT('',(6.78232998312528,10.5,-0.999999999999997));
#436=CARTESIAN_POINT('',(0.,0.,-0.999999999999997));
#437=CARTESIAN_POINT('',(0.,0.,20.9080749503476));
#438=CARTESIAN_POINT('',(6.78232998312528,10.5,-0.999999999999997));
#439=CARTESIAN_POINT('',(6.1018010621907,10.5,-0.63075426361292));
#440=CARTESIAN_POINT('',(5.40395096505582,10.5,-0.291024067113982));
#441=CARTESIAN_POINT('',(4.69041575982344,10.5,3.88610844072734E-16));
#442=CARTESIAN_POINT('',(-4.69041575982344,10.5,-1.88966873347019E-15));
#443=CARTESIAN_POINT('',(-5.40445364369694,10.5,-0.291229090750545));
#444=CARTESIAN_POINT('',(-6.1056876934673,10.5,-0.632863096880171));
#445=CARTESIAN_POINT('',(-6.78232998312528,10.5,-0.999999999999999));
#446=CARTESIAN_POINT('',(0.,0.,0.));
#447=CARTESIAN_POINT('',(0.,0.,-59.4976789221609));
#448=CARTESIAN_POINT('',(12.1339745962156,0.,-59.4976789221609));
#449=CARTESIAN_POINT('',(0.,0.,-59.7297297297297));
#450=CARTESIAN_POINT('',(0.,0.,-96.8660254037844));
#451=CARTESIAN_POINT('',(-12.1339745962156,0.,-96.8660254037844));
#452=CARTESIAN_POINT('',(0.,0.,-97.5));
#453=CARTESIAN_POINT('',(-12.5,0.,-97.5));
#454=CARTESIAN_POINT('',(0.,0.,-97.5));
#455=CARTESIAN_POINT('',(0.,0.,-96.3660254037844));
#456=CARTESIAN_POINT('',(12.,0.,-96.3660254037844));
#457=CARTESIAN_POINT('',(0.,0.,-59.9976789221609));
#458=CARTESIAN_POINT('',(12.,0.,-59.9976789221609));
#459=CARTESIAN_POINT('',(0.,0.,0.));
#460=CARTESIAN_POINT('',(0.,0.,-59.9976789221609));
#461=CARTESIAN_POINT('',(0.,0.,-96.3660254037844));
#462=CARTESIAN_POINT('',(10.,10.5,-17.));
#463=CARTESIAN_POINT('',(10.,10.5,2.));
#464=CARTESIAN_POINT('',(10.,10.5,-17.));
#465=CARTESIAN_POINT('',(10.,10.5,-26.));
#466=CARTESIAN_POINT('',(10.,12.5,-24.));
#467=CARTESIAN_POINT('',(10.,10.5,-38.));
#468=CARTESIAN_POINT('',(10.,10.5,-26.));
#469=CARTESIAN_POINT('',(10.,12.5,-40.));
#470=CARTESIAN_POINT('',(0.,0.,-97.5));
#471=CARTESIAN_POINT('',(0.,0.,-97.5));
#472=CARTESIAN_POINT('',(12.5,0.,-97.5));
#473=CARTESIAN_POINT('',(0.,0.,-97.5));
#474=CARTESIAN_POINT('',(0.,0.,-135.));
#475=CARTESIAN_POINT('',(12.5,0.,-135.));
#476=CARTESIAN_POINT('',(0.,0.,-135.));
#477=CARTESIAN_POINT('',(0.,0.,0.));
#478=MECHANICAL_DESIGN_GEOMETRIC_PRESENTATION_REPRESENTATION('',(#256,#257,
#258,#259,#260,#261,#262,#263,#264),#479);
#479=(
GEOMETRIC_REPRESENTATION_CONTEXT(3)
GLOBAL_UNCERTAINTY_ASSIGNED_CONTEXT((#480))
GLOBAL_UNIT_ASSIGNED_CONTEXT((#486,#482,#481))
REPRESENTATION_CONTEXT('TOOL','TOP_LEVEL_ASSEMBLY_PART')
);
#480=UNCERTAINTY_MEASURE_WITH_UNIT(LENGTH_MEASURE(0.0508),#486,
'DISTANCE_ACCURACY_VALUE','Maximum Tolerance applied to model');
#481=(
NAMED_UNIT(*)
SI_UNIT($,.STERADIAN.)
SOLID_ANGLE_UNIT()
);
#482=(
CONVERSION_BASED_UNIT('DEGREE',#484)
NAMED_UNIT(#483)
PLANE_ANGLE_UNIT()
);
#483=DIMENSIONAL_EXPONENTS(0.,0.,0.,0.,0.,0.,0.);
#484=PLANE_ANGLE_MEASURE_WITH_UNIT(PLANE_ANGLE_MEASURE(0.0174532925),#485);
#485=(
NAMED_UNIT(*)
PLANE_ANGLE_UNIT()
SI_UNIT($,.RADIAN.)
);
#486=(
LENGTH_UNIT()
NAMED_UNIT(*)
SI_UNIT(.MILLI.,.METRE.)
);
ENDSEC;
END-ISO-10303-21;
