ISO-10303-21;
HEADER;
/* Generated by software containing ST-Developer
 * from STEP Tools, Inc. (www.steptools.com) 
 */
/* OPTION: using custom schema-name function */

FILE_DESCRIPTION(
/* description */ (''),
/* implementation_level */ '2;1');

FILE_NAME(
/* name */ 'TOOL.STP',
/* time_stamp */ '2023-03-20T04:41:26+01:00',
/* author */ (''),
/* organization */ ('SMS'),
/* preprocessor_version */ 'ST-DEVELOPER v16.7',
/* originating_system */ 'SIEMENS PLM Software NX 12.0',
/* authorisation */ '');

FILE_SCHEMA (('AUTOMOTIVE_DESIGN { 1 0 10303 214 3 1 1 1 }'));
ENDSEC;

DATA;
#10=CONSTRUCTIVE_GEOMETRY_REPRESENTATION_RELATIONSHIP(
'supplemental geometry','',#26,#11);
#11=CONSTRUCTIVE_GEOMETRY_REPRESENTATION('supplemental geometry',(#186,
#187,#188),#307);
#12=GEOMETRICALLY_BOUNDED_WIREFRAME_SHAPE_REPRESENTATION('Tool-None',(#27),
#307);
#13=SHAPE_REPRESENTATION_RELATIONSHIP('None',
'relationship between Tool-None and Tool-None',#26,#15);
#14=SHAPE_REPRESENTATION_RELATIONSHIP('None',
'relationship between Tool-None and Tool-None',#26,#12);
#15=ADVANCED_BREP_SHAPE_REPRESENTATION('Tool-None',(#38,#39),#307);
#16=SHAPE_DEFINITION_REPRESENTATION(#17,#26);
#17=PRODUCT_DEFINITION_SHAPE('','',#18);
#18=PRODUCT_DEFINITION(' ','',#20,#19);
#19=PRODUCT_DEFINITION_CONTEXT('part definition',#25,'design');
#20=PRODUCT_DEFINITION_FORMATION_WITH_SPECIFIED_SOURCE(' ',' ',#22,
 .NOT_KNOWN.);
#21=PRODUCT_RELATED_PRODUCT_CATEGORY('part','',(#22));
#22=PRODUCT('Tool','Tool',' ',(#23));
#23=PRODUCT_CONTEXT(' ',#25,'mechanical');
#24=APPLICATION_PROTOCOL_DEFINITION('international standard',
'automotive_design',2010,#25);
#25=APPLICATION_CONTEXT(
'core data for automotive mechanical design processes');
#26=SHAPE_REPRESENTATION('Tool-None',(#185),#307);
#27=GEOMETRIC_CURVE_SET('None',(#258,#259,#260,#153));
#28=SURFACE_STYLE_USAGE(.BOTH.,#30);
#29=SURFACE_STYLE_USAGE(.BOTH.,#31);
#30=SURFACE_SIDE_STYLE('',(#32));
#31=SURFACE_SIDE_STYLE('',(#33));
#32=SURFACE_STYLE_FILL_AREA(#34);
#33=SURFACE_STYLE_FILL_AREA(#35);
#34=FILL_AREA_STYLE('',(#36));
#35=FILL_AREA_STYLE('',(#37));
#36=FILL_AREA_STYLE_COLOUR('',#183);
#37=FILL_AREA_STYLE_COLOUR('',#184);
#38=MANIFOLD_SOLID_BREP('NOCUT',#40);
#39=MANIFOLD_SOLID_BREP('CUT',#41);
#40=CLOSED_SHELL('',(#55,#56,#57,#58,#59,#60,#61,#62));
#41=CLOSED_SHELL('',(#63,#64,#65));
#42=PLANE('',#199);
#43=PLANE('',#203);
#44=PLANE('',#205);
#45=PLANE('',#207);
#46=FACE_OUTER_BOUND('',#90,.T.);
#47=FACE_OUTER_BOUND('',#95,.T.);
#48=FACE_OUTER_BOUND('',#96,.T.);
#49=FACE_OUTER_BOUND('',#97,.T.);
#50=TOROIDAL_SURFACE('',#195,2.44,1.);
#51=TOROIDAL_SURFACE('',#197,2.44,1.);
#52=CYLINDRICAL_SURFACE('',#194,1.44);
#53=CYLINDRICAL_SURFACE('',#201,3.);
#54=CYLINDRICAL_SURFACE('',#208,1.5);
#55=ADVANCED_FACE('',(#68,#69),#66,.T.);
#56=ADVANCED_FACE('',(#70,#71),#52,.T.);
#57=ADVANCED_FACE('',(#72,#73),#50,.F.);
#58=ADVANCED_FACE('',(#74,#75),#51,.F.);
#59=ADVANCED_FACE('',(#46),#42,.F.);
#60=ADVANCED_FACE('',(#76,#77),#53,.T.);
#61=ADVANCED_FACE('',(#78,#79),#67,.T.);
#62=ADVANCED_FACE('',(#47),#43,.T.);
#63=ADVANCED_FACE('',(#48),#44,.T.);
#64=ADVANCED_FACE('',(#49),#45,.F.);
#65=ADVANCED_FACE('',(#80,#81),#54,.T.);
#66=CONICAL_SURFACE('',#191,1.44,30.0000000000001);
#67=CONICAL_SURFACE('',#202,2.6,45.);
#68=FACE_BOUND('',#82,.T.);
#69=FACE_BOUND('',#83,.T.);
#70=FACE_BOUND('',#84,.T.);
#71=FACE_BOUND('',#85,.T.);
#72=FACE_BOUND('',#86,.T.);
#73=FACE_BOUND('',#87,.T.);
#74=FACE_BOUND('',#88,.T.);
#75=FACE_BOUND('',#89,.T.);
#76=FACE_BOUND('',#91,.T.);
#77=FACE_BOUND('',#92,.T.);
#78=FACE_BOUND('',#93,.T.);
#79=FACE_BOUND('',#94,.T.);
#80=FACE_BOUND('',#98,.T.);
#81=FACE_BOUND('',#99,.T.);
#82=EDGE_LOOP('',(#100));
#83=EDGE_LOOP('',(#101));
#84=EDGE_LOOP('',(#102));
#85=EDGE_LOOP('',(#103));
#86=EDGE_LOOP('',(#104));
#87=EDGE_LOOP('',(#105));
#88=EDGE_LOOP('',(#106));
#89=EDGE_LOOP('',(#107));
#90=EDGE_LOOP('',(#108));
#91=EDGE_LOOP('',(#109));
#92=EDGE_LOOP('',(#110));
#93=EDGE_LOOP('',(#111));
#94=EDGE_LOOP('',(#112));
#95=EDGE_LOOP('',(#113));
#96=EDGE_LOOP('',(#114));
#97=EDGE_LOOP('',(#115));
#98=EDGE_LOOP('',(#116));
#99=EDGE_LOOP('',(#117));
#100=ORIENTED_EDGE('',*,*,#127,.T.);
#101=ORIENTED_EDGE('',*,*,#128,.F.);
#102=ORIENTED_EDGE('',*,*,#129,.T.);
#103=ORIENTED_EDGE('',*,*,#130,.T.);
#104=ORIENTED_EDGE('',*,*,#130,.F.);
#105=ORIENTED_EDGE('',*,*,#127,.F.);
#106=ORIENTED_EDGE('',*,*,#131,.F.);
#107=ORIENTED_EDGE('',*,*,#129,.F.);
#108=ORIENTED_EDGE('',*,*,#132,.T.);
#109=ORIENTED_EDGE('',*,*,#133,.T.);
#110=ORIENTED_EDGE('',*,*,#128,.T.);
#111=ORIENTED_EDGE('',*,*,#133,.F.);
#112=ORIENTED_EDGE('',*,*,#132,.F.);
#113=ORIENTED_EDGE('',*,*,#131,.T.);
#114=ORIENTED_EDGE('',*,*,#134,.T.);
#115=ORIENTED_EDGE('',*,*,#135,.F.);
#116=ORIENTED_EDGE('',*,*,#134,.F.);
#117=ORIENTED_EDGE('',*,*,#135,.T.);
#118=VERTEX_POINT('',#278);
#119=VERTEX_POINT('',#280);
#120=VERTEX_POINT('',#283);
#121=VERTEX_POINT('',#285);
#122=VERTEX_POINT('',#289);
#123=VERTEX_POINT('',#292);
#124=VERTEX_POINT('',#295);
#125=VERTEX_POINT('',#300);
#126=VERTEX_POINT('',#303);
#127=EDGE_CURVE('',#118,#118,#136,.T.);
#128=EDGE_CURVE('',#119,#119,#137,.T.);
#129=EDGE_CURVE('',#120,#120,#138,.T.);
#130=EDGE_CURVE('',#121,#121,#139,.T.);
#131=EDGE_CURVE('',#122,#122,#140,.T.);
#132=EDGE_CURVE('',#123,#123,#141,.T.);
#133=EDGE_CURVE('',#124,#124,#142,.T.);
#134=EDGE_CURVE('',#125,#125,#143,.T.);
#135=EDGE_CURVE('',#126,#126,#144,.T.);
#136=CIRCLE('',#189,1.57397459621556);
#137=CIRCLE('',#190,3.);
#138=CIRCLE('',#192,1.44);
#139=CIRCLE('',#193,1.44);
#140=CIRCLE('',#196,1.5);
#141=CIRCLE('',#198,2.6);
#142=CIRCLE('',#200,3.);
#143=CIRCLE('',#204,1.5);
#144=CIRCLE('',#206,1.5);
#145=CURVE_STYLE('',#149,POSITIVE_LENGTH_MEASURE(0.18),#155);
#146=CURVE_STYLE('',#150,POSITIVE_LENGTH_MEASURE(0.13),#182);
#147=CURVE_STYLE('',#151,POSITIVE_LENGTH_MEASURE(0.18),#181);
#148=CURVE_STYLE('',#152,POSITIVE_LENGTH_MEASURE(0.18),#181);
#149=DRAUGHTING_PRE_DEFINED_CURVE_FONT('continuous');
#150=DRAUGHTING_PRE_DEFINED_CURVE_FONT('continuous');
#151=DRAUGHTING_PRE_DEFINED_CURVE_FONT('continuous');
#152=DRAUGHTING_PRE_DEFINED_CURVE_FONT('continuous');
#153=B_SPLINE_CURVE_WITH_KNOTS('CUTTING PART LINE',3,(#261,#262,#263,#264,
#265,#266,#267,#268,#269,#270,#271,#272,#273),.UNSPECIFIED.,.T.,.F.,(4,
3,3,3,4),(0.,0.375000000003125,0.500000000004167,0.875000000007292,1.),
 .UNSPECIFIED.);
#154=DRAUGHTING_PRE_DEFINED_COLOUR('white');
#155=DRAUGHTING_PRE_DEFINED_COLOUR('blue');
#156=PRESENTATION_LAYER_ASSIGNMENT('1','Layer 1',(#258,#259,#260,#153,#186,
#187,#188,#38,#39));
#157=STYLED_ITEM('',(#166),#258);
#158=STYLED_ITEM('',(#167),#259);
#159=STYLED_ITEM('',(#168),#260);
#160=STYLED_ITEM('',(#169),#153);
#161=STYLED_ITEM('',(#170),#186);
#162=STYLED_ITEM('',(#171),#187);
#163=STYLED_ITEM('',(#172),#188);
#164=STYLED_ITEM('',(#173),#38);
#165=STYLED_ITEM('',(#174),#39);
#166=PRESENTATION_STYLE_ASSIGNMENT((#175));
#167=PRESENTATION_STYLE_ASSIGNMENT((#176));
#168=PRESENTATION_STYLE_ASSIGNMENT((#177));
#169=PRESENTATION_STYLE_ASSIGNMENT((#145));
#170=PRESENTATION_STYLE_ASSIGNMENT((#146));
#171=PRESENTATION_STYLE_ASSIGNMENT((#147));
#172=PRESENTATION_STYLE_ASSIGNMENT((#148));
#173=PRESENTATION_STYLE_ASSIGNMENT((#28));
#174=PRESENTATION_STYLE_ASSIGNMENT((#29));
#175=POINT_STYLE('',#178,POSITIVE_LENGTH_MEASURE(3.),#181);
#176=POINT_STYLE('',#179,POSITIVE_LENGTH_MEASURE(3.),#154);
#177=POINT_STYLE('',#180,POSITIVE_LENGTH_MEASURE(3.),#181);
#178=PRE_DEFINED_POINT_MARKER_SYMBOL('plus');
#179=PRE_DEFINED_POINT_MARKER_SYMBOL('plus');
#180=PRE_DEFINED_POINT_MARKER_SYMBOL('plus');
#181=COLOUR_RGB('Medium Maroon',0.6,0.4,0.4);
#182=COLOUR_RGB('Silver Gray',0.6,0.6,0.6);
#183=COLOUR_RGB('TLS_NOCUT',0.498023956664378,0.498023956664378,0.498023956664378);
#184=COLOUR_RGB('TLS_CUT',0.8,0.8,0.8);
#185=AXIS2_PLACEMENT_3D('',#257,#209,#210);
#186=AXIS2_PLACEMENT_3D('PCS',#274,#211,#212);
#187=AXIS2_PLACEMENT_3D('MCS',#275,#213,#214);
#188=AXIS2_PLACEMENT_3D('CIP',#276,#215,#216);
#189=AXIS2_PLACEMENT_3D('',#277,#217,#218);
#190=AXIS2_PLACEMENT_3D('',#279,#219,#220);
#191=AXIS2_PLACEMENT_3D('',#281,#221,#222);
#192=AXIS2_PLACEMENT_3D('',#282,#223,#224);
#193=AXIS2_PLACEMENT_3D('',#284,#225,#226);
#194=AXIS2_PLACEMENT_3D('',#286,#227,#228);
#195=AXIS2_PLACEMENT_3D('',#287,#229,#230);
#196=AXIS2_PLACEMENT_3D('',#288,#231,#232);
#197=AXIS2_PLACEMENT_3D('',#290,#233,#234);
#198=AXIS2_PLACEMENT_3D('',#291,#235,#236);
#199=AXIS2_PLACEMENT_3D('',#293,#237,#238);
#200=AXIS2_PLACEMENT_3D('',#294,#239,#240);
#201=AXIS2_PLACEMENT_3D('',#296,#241,#242);
#202=AXIS2_PLACEMENT_3D('',#297,#243,#244);
#203=AXIS2_PLACEMENT_3D('',#298,#245,#246);
#204=AXIS2_PLACEMENT_3D('',#299,#247,#248);
#205=AXIS2_PLACEMENT_3D('',#301,#249,#250);
#206=AXIS2_PLACEMENT_3D('',#302,#251,#252);
#207=AXIS2_PLACEMENT_3D('',#304,#253,#254);
#208=AXIS2_PLACEMENT_3D('',#305,#255,#256);
#209=DIRECTION('',(0.,0.,1.));
#210=DIRECTION('',(1.,0.,0.));
#211=DIRECTION('',(0.,0.,1.));
#212=DIRECTION('',(1.,0.,0.));
#213=DIRECTION('',(0.,0.,1.));
#214=DIRECTION('',(1.,0.,0.));
#215=DIRECTION('',(0.,0.,1.));
#216=DIRECTION('',(1.,0.,0.));
#217=DIRECTION('',(0.,0.,1.));
#218=DIRECTION('',(1.,0.,0.));
#219=DIRECTION('',(0.,0.,1.));
#220=DIRECTION('',(1.,0.,0.));
#221=DIRECTION('',(0.,0.,1.));
#222=DIRECTION('',(1.,0.,2.39772306940214E-17));
#223=DIRECTION('',(0.,0.,1.));
#224=DIRECTION('',(-1.,0.,0.));
#225=DIRECTION('',(0.,0.,-1.));
#226=DIRECTION('',(1.,0.,0.));
#227=DIRECTION('',(0.,0.,1.));
#228=DIRECTION('',(1.,0.,0.));
#229=DIRECTION('',(0.,0.,1.));
#230=DIRECTION('',(1.,0.,0.));
#231=DIRECTION('',(0.,0.,-1.));
#232=DIRECTION('',(1.,0.,0.));
#233=DIRECTION('',(0.,0.,-1.));
#234=DIRECTION('',(-1.,0.,0.));
#235=DIRECTION('',(0.,0.,1.));
#236=DIRECTION('',(-1.,0.,0.));
#237=DIRECTION('',(0.,0.,-1.));
#238=DIRECTION('',(-1.,0.,0.));
#239=DIRECTION('',(0.,0.,-1.));
#240=DIRECTION('',(-1.,0.,0.));
#241=DIRECTION('',(0.,0.,1.));
#242=DIRECTION('',(1.,0.,0.));
#243=DIRECTION('',(0.,0.,-1.));
#244=DIRECTION('',(-1.,0.,0.));
#245=DIRECTION('',(0.,0.,-1.));
#246=DIRECTION('',(-1.,0.,0.));
#247=DIRECTION('',(0.,0.,1.));
#248=DIRECTION('',(1.,0.,0.));
#249=DIRECTION('',(0.,0.,1.));
#250=DIRECTION('',(1.,0.,0.));
#251=DIRECTION('',(0.,0.,1.));
#252=DIRECTION('',(1.,0.,0.));
#253=DIRECTION('',(0.,0.,1.));
#254=DIRECTION('',(1.,0.,0.));
#255=DIRECTION('',(0.,0.,1.));
#256=DIRECTION('',(1.,0.,0.));
#257=CARTESIAN_POINT('',(0.,0.,0.));
#258=CARTESIAN_POINT('',(0.,0.,-36.));
#259=CARTESIAN_POINT('CRP',(-1.5,0.,-50.));
#260=CARTESIAN_POINT('CIP_DCSYS',(0.,0.,-50.));
#261=CARTESIAN_POINT('',(0.,0.,-50.));
#262=CARTESIAN_POINT('',(0.,0.,-48.5));
#263=CARTESIAN_POINT('',(0.,0.,-47.));
#264=CARTESIAN_POINT('',(0.,0.,-45.5));
#265=CARTESIAN_POINT('',(-0.5,0.,-45.5));
#266=CARTESIAN_POINT('',(-1.,0.,-45.5));
#267=CARTESIAN_POINT('',(-1.5,0.,-45.5));
#268=CARTESIAN_POINT('',(-1.5,0.,-47.));
#269=CARTESIAN_POINT('',(-1.5,0.,-48.5));
#270=CARTESIAN_POINT('',(-1.5,0.,-50.));
#271=CARTESIAN_POINT('',(-1.,0.,-50.));
#272=CARTESIAN_POINT('',(-0.5,0.,-50.));
#273=CARTESIAN_POINT('',(0.,0.,-50.));
#274=CARTESIAN_POINT('',(0.,0.,0.));
#275=CARTESIAN_POINT('',(0.,0.,-36.));
#276=CARTESIAN_POINT('',(0.,0.,-50.));
#277=CARTESIAN_POINT('',(0.,0.,-38.9976789221609));
#278=CARTESIAN_POINT('',(1.57397459621556,0.,-38.9976789221609));
#279=CARTESIAN_POINT('',(0.,0.,-36.5277304699223));
#280=CARTESIAN_POINT('',(3.,0.,-36.5277304699223));
#281=CARTESIAN_POINT('',(0.,0.,-39.2297297297297));
#282=CARTESIAN_POINT('',(0.,0.,-45.1588255578153));
#283=CARTESIAN_POINT('',(-1.44,0.,-45.1588255578153));
#284=CARTESIAN_POINT('',(0.,0.,-39.4976789221609));
#285=CARTESIAN_POINT('',(1.44,0.,-39.4976789221609));
#286=CARTESIAN_POINT('',(0.,0.,0.));
#287=CARTESIAN_POINT('',(0.,0.,-39.4976789221609));
#288=CARTESIAN_POINT('',(0.,0.,-45.5));
#289=CARTESIAN_POINT('',(1.5,0.,-45.5));
#290=CARTESIAN_POINT('',(0.,0.,-45.1588255578153));
#291=CARTESIAN_POINT('',(0.,0.,0.));
#292=CARTESIAN_POINT('',(-2.6,0.,0.));
#293=CARTESIAN_POINT('',(0.,3.00000000000001,0.));
#294=CARTESIAN_POINT('',(0.,0.,-0.400000000000001));
#295=CARTESIAN_POINT('',(-3.,0.,-0.400000000000001));
#296=CARTESIAN_POINT('',(0.,0.,20.9080749503476));
#297=CARTESIAN_POINT('',(0.,0.,0.));
#298=CARTESIAN_POINT('',(0.,0.,-45.5));
#299=CARTESIAN_POINT('',(0.,0.,-45.5));
#300=CARTESIAN_POINT('',(1.5,0.,-45.5));
#301=CARTESIAN_POINT('',(0.,0.,-45.5));
#302=CARTESIAN_POINT('',(0.,0.,-50.));
#303=CARTESIAN_POINT('',(1.5,0.,-50.));
#304=CARTESIAN_POINT('',(0.,0.,-50.));
#305=CARTESIAN_POINT('',(0.,0.,0.));
#306=MECHANICAL_DESIGN_GEOMETRIC_PRESENTATION_REPRESENTATION('',(#157,#158,
#159,#160,#161,#162,#163,#164,#165),#307);
#307=(
GEOMETRIC_REPRESENTATION_CONTEXT(3)
GLOBAL_UNCERTAINTY_ASSIGNED_CONTEXT((#308))
GLOBAL_UNIT_ASSIGNED_CONTEXT((#314,#310,#309))
REPRESENTATION_CONTEXT('TOOL','TOP_LEVEL_ASSEMBLY_PART')
);
#308=UNCERTAINTY_MEASURE_WITH_UNIT(LENGTH_MEASURE(2.E-5),#314,
'DISTANCE_ACCURACY_VALUE','Maximum Tolerance applied to model');
#309=(
NAMED_UNIT(*)
SI_UNIT($,.STERADIAN.)
SOLID_ANGLE_UNIT()
);
#310=(
CONVERSION_BASED_UNIT('DEGREE',#312)
NAMED_UNIT(#311)
PLANE_ANGLE_UNIT()
);
#311=DIMENSIONAL_EXPONENTS(0.,0.,0.,0.,0.,0.,0.);
#312=PLANE_ANGLE_MEASURE_WITH_UNIT(PLANE_ANGLE_MEASURE(0.0174532925),#313);
#313=(
NAMED_UNIT(*)
PLANE_ANGLE_UNIT()
SI_UNIT($,.RADIAN.)
);
#314=(
LENGTH_UNIT()
NAMED_UNIT(*)
SI_UNIT(.MILLI.,.METRE.)
);
ENDSEC;
END-ISO-10303-21;
