ISO-10303-21;
HEADER;
/* Generated by software containing ST-Developer
 * from STEP Tools, Inc. (www.steptools.com) 
 */
/* OPTION: using custom schema-name function */

FILE_DESCRIPTION(
/* description */ (''),
/* implementation_level */ '2;1');

FILE_NAME(
/* name */ 'TOOL.STP',
/* time_stamp */ '2023-03-20T04:41:01+01:00',
/* author */ (''),
/* organization */ ('SMS'),
/* preprocessor_version */ 'ST-DEVELOPER v16.7',
/* originating_system */ 'SIEMENS PLM Software NX 12.0',
/* authorisation */ '');

FILE_SCHEMA (('AUTOMOTIVE_DESIGN { 1 0 10303 214 3 1 1 1 }'));
ENDSEC;

DATA;
#10=CONSTRUCTIVE_GEOMETRY_REPRESENTATION_RELATIONSHIP(
'supplemental geometry','',#26,#11);
#11=CONSTRUCTIVE_GEOMETRY_REPRESENTATION('supplemental geometry',(#230,
#231,#232),#379);
#12=GEOMETRICALLY_BOUNDED_WIREFRAME_SHAPE_REPRESENTATION('Tool-None',(#27),
#379);
#13=SHAPE_REPRESENTATION_RELATIONSHIP('None',
'relationship between Tool-None and Tool-None',#26,#15);
#14=SHAPE_REPRESENTATION_RELATIONSHIP('None',
'relationship between Tool-None and Tool-None',#26,#12);
#15=ADVANCED_BREP_SHAPE_REPRESENTATION('Tool-None',(#38,#39),#379);
#16=SHAPE_DEFINITION_REPRESENTATION(#17,#26);
#17=PRODUCT_DEFINITION_SHAPE('','',#18);
#18=PRODUCT_DEFINITION(' ','',#20,#19);
#19=PRODUCT_DEFINITION_CONTEXT('part definition',#25,'design');
#20=PRODUCT_DEFINITION_FORMATION_WITH_SPECIFIED_SOURCE(' ',' ',#22,
 .NOT_KNOWN.);
#21=PRODUCT_RELATED_PRODUCT_CATEGORY('part','',(#22));
#22=PRODUCT('Tool','Tool',' ',(#23));
#23=PRODUCT_CONTEXT(' ',#25,'mechanical');
#24=APPLICATION_PROTOCOL_DEFINITION('international standard',
'automotive_design',2010,#25);
#25=APPLICATION_CONTEXT(
'core data for automotive mechanical design processes');
#26=SHAPE_REPRESENTATION('Tool-None',(#229),#379);
#27=GEOMETRIC_CURVE_SET('None',(#310,#311,#312,#195));
#28=SURFACE_STYLE_USAGE(.BOTH.,#30);
#29=SURFACE_STYLE_USAGE(.BOTH.,#31);
#30=SURFACE_SIDE_STYLE('',(#32));
#31=SURFACE_SIDE_STYLE('',(#33));
#32=SURFACE_STYLE_FILL_AREA(#34);
#33=SURFACE_STYLE_FILL_AREA(#35);
#34=FILL_AREA_STYLE('',(#36));
#35=FILL_AREA_STYLE('',(#37));
#36=FILL_AREA_STYLE_COLOUR('',#227);
#37=FILL_AREA_STYLE_COLOUR('',#228);
#38=MANIFOLD_SOLID_BREP('NOCUT',#40);
#39=MANIFOLD_SOLID_BREP('CUT',#41);
#40=CLOSED_SHELL('',(#62,#63,#64,#65,#66,#67,#68,#69,#70));
#41=CLOSED_SHELL('',(#71,#72,#73));
#42=CONICAL_SURFACE('',#241,11.5,45.0000000000001);
#43=PLANE('',#240);
#44=PLANE('',#242);
#45=PLANE('',#243);
#46=PLANE('',#244);
#47=PLANE('',#245);
#48=PLANE('',#246);
#49=PLANE('',#247);
#50=PLANE('',#249);
#51=PLANE('',#252);
#52=FACE_OUTER_BOUND('',#84,.T.);
#53=FACE_OUTER_BOUND('',#85,.T.);
#54=FACE_OUTER_BOUND('',#86,.T.);
#55=FACE_OUTER_BOUND('',#87,.T.);
#56=FACE_OUTER_BOUND('',#88,.T.);
#57=FACE_OUTER_BOUND('',#89,.T.);
#58=FACE_OUTER_BOUND('',#90,.T.);
#59=FACE_OUTER_BOUND('',#91,.T.);
#60=FACE_OUTER_BOUND('',#92,.T.);
#61=FACE_OUTER_BOUND('',#95,.T.);
#62=ADVANCED_FACE('',(#76,#77,#78),#74,.T.);
#63=ADVANCED_FACE('',(#52),#43,.F.);
#64=ADVANCED_FACE('',(#53),#42,.T.);
#65=ADVANCED_FACE('',(#54),#44,.T.);
#66=ADVANCED_FACE('',(#55),#45,.T.);
#67=ADVANCED_FACE('',(#56),#46,.T.);
#68=ADVANCED_FACE('',(#57),#47,.T.);
#69=ADVANCED_FACE('',(#58),#48,.T.);
#70=ADVANCED_FACE('',(#59),#49,.T.);
#71=ADVANCED_FACE('',(#60),#50,.T.);
#72=ADVANCED_FACE('',(#79,#80),#75,.T.);
#73=ADVANCED_FACE('',(#61),#51,.F.);
#74=CYLINDRICAL_SURFACE('',#238,12.5);
#75=CYLINDRICAL_SURFACE('',#251,12.5);
#76=FACE_BOUND('',#81,.T.);
#77=FACE_BOUND('',#82,.T.);
#78=FACE_BOUND('',#83,.T.);
#79=FACE_BOUND('',#93,.T.);
#80=FACE_BOUND('',#94,.T.);
#81=EDGE_LOOP('',(#104,#105,#106,#107));
#82=EDGE_LOOP('',(#108,#109,#110,#111));
#83=EDGE_LOOP('',(#112));
#84=EDGE_LOOP('',(#113,#114));
#85=EDGE_LOOP('',(#115,#116,#117,#118));
#86=EDGE_LOOP('',(#119,#120,#121,#122,#123,#124));
#87=EDGE_LOOP('',(#125,#126));
#88=EDGE_LOOP('',(#127,#128));
#89=EDGE_LOOP('',(#129,#130,#131,#132));
#90=EDGE_LOOP('',(#133,#134));
#91=EDGE_LOOP('',(#135));
#92=EDGE_LOOP('',(#136));
#93=EDGE_LOOP('',(#137));
#94=EDGE_LOOP('',(#138));
#95=EDGE_LOOP('',(#139));
#96=CIRCLE('',#234,12.5);
#97=CIRCLE('',#237,12.5);
#98=CIRCLE('',#239,11.5);
#99=CIRCLE('',#248,12.5);
#100=CIRCLE('',#250,12.5);
#101=ELLIPSE('',#233,17.6776695296637,12.5);
#102=ELLIPSE('',#235,17.6776695296637,12.5);
#103=ELLIPSE('',#236,17.6776695296637,12.5);
#104=ORIENTED_EDGE('',*,*,#153,.F.);
#105=ORIENTED_EDGE('',*,*,#154,.F.);
#106=ORIENTED_EDGE('',*,*,#155,.F.);
#107=ORIENTED_EDGE('',*,*,#156,.T.);
#108=ORIENTED_EDGE('',*,*,#157,.F.);
#109=ORIENTED_EDGE('',*,*,#158,.F.);
#110=ORIENTED_EDGE('',*,*,#159,.F.);
#111=ORIENTED_EDGE('',*,*,#160,.F.);
#112=ORIENTED_EDGE('',*,*,#161,.F.);
#113=ORIENTED_EDGE('',*,*,#162,.F.);
#114=ORIENTED_EDGE('',*,*,#163,.T.);
#115=ORIENTED_EDGE('',*,*,#156,.F.);
#116=ORIENTED_EDGE('',*,*,#164,.T.);
#117=ORIENTED_EDGE('',*,*,#163,.F.);
#118=ORIENTED_EDGE('',*,*,#165,.T.);
#119=ORIENTED_EDGE('',*,*,#155,.T.);
#120=ORIENTED_EDGE('',*,*,#166,.F.);
#121=ORIENTED_EDGE('',*,*,#153,.T.);
#122=ORIENTED_EDGE('',*,*,#165,.F.);
#123=ORIENTED_EDGE('',*,*,#162,.T.);
#124=ORIENTED_EDGE('',*,*,#164,.F.);
#125=ORIENTED_EDGE('',*,*,#154,.T.);
#126=ORIENTED_EDGE('',*,*,#166,.T.);
#127=ORIENTED_EDGE('',*,*,#157,.T.);
#128=ORIENTED_EDGE('',*,*,#167,.F.);
#129=ORIENTED_EDGE('',*,*,#158,.T.);
#130=ORIENTED_EDGE('',*,*,#167,.T.);
#131=ORIENTED_EDGE('',*,*,#160,.T.);
#132=ORIENTED_EDGE('',*,*,#168,.F.);
#133=ORIENTED_EDGE('',*,*,#159,.T.);
#134=ORIENTED_EDGE('',*,*,#168,.T.);
#135=ORIENTED_EDGE('',*,*,#161,.T.);
#136=ORIENTED_EDGE('',*,*,#169,.T.);
#137=ORIENTED_EDGE('',*,*,#170,.T.);
#138=ORIENTED_EDGE('',*,*,#169,.F.);
#139=ORIENTED_EDGE('',*,*,#170,.F.);
#140=VERTEX_POINT('',#330);
#141=VERTEX_POINT('',#331);
#142=VERTEX_POINT('',#333);
#143=VERTEX_POINT('',#335);
#144=VERTEX_POINT('',#338);
#145=VERTEX_POINT('',#339);
#146=VERTEX_POINT('',#341);
#147=VERTEX_POINT('',#343);
#148=VERTEX_POINT('',#346);
#149=VERTEX_POINT('',#349);
#150=VERTEX_POINT('',#350);
#151=VERTEX_POINT('',#372);
#152=VERTEX_POINT('',#375);
#153=EDGE_CURVE('',#140,#141,#171,.T.);
#154=EDGE_CURVE('',#142,#140,#101,.T.);
#155=EDGE_CURVE('',#143,#142,#172,.T.);
#156=EDGE_CURVE('',#143,#141,#96,.T.);
#157=EDGE_CURVE('',#144,#145,#102,.T.);
#158=EDGE_CURVE('',#146,#144,#173,.T.);
#159=EDGE_CURVE('',#147,#146,#103,.T.);
#160=EDGE_CURVE('',#145,#147,#174,.T.);
#161=EDGE_CURVE('',#148,#148,#97,.T.);
#162=EDGE_CURVE('',#149,#150,#175,.T.);
#163=EDGE_CURVE('',#149,#150,#98,.T.);
#164=EDGE_CURVE('',#143,#150,#196,.T.);
#165=EDGE_CURVE('',#149,#141,#197,.T.);
#166=EDGE_CURVE('',#140,#142,#176,.T.);
#167=EDGE_CURVE('',#144,#145,#177,.T.);
#168=EDGE_CURVE('',#146,#147,#178,.T.);
#169=EDGE_CURVE('',#151,#151,#99,.T.);
#170=EDGE_CURVE('',#152,#152,#100,.T.);
#171=LINE('',#329,#179);
#172=LINE('',#334,#180);
#173=LINE('',#340,#181);
#174=LINE('',#344,#182);
#175=LINE('',#348,#183);
#176=LINE('',#362,#184);
#177=LINE('',#365,#185);
#178=LINE('',#367,#186);
#179=VECTOR('',#261,1.);
#180=VECTOR('',#264,1.);
#181=VECTOR('',#269,1.);
#182=VECTOR('',#272,1.);
#183=VECTOR('',#277,1.);
#184=VECTOR('',#284,1.);
#185=VECTOR('',#289,1.);
#186=VECTOR('',#292,1.);
#187=CURVE_STYLE('',#191,POSITIVE_LENGTH_MEASURE(0.18),#199);
#188=CURVE_STYLE('',#192,POSITIVE_LENGTH_MEASURE(0.13),#226);
#189=CURVE_STYLE('',#193,POSITIVE_LENGTH_MEASURE(0.18),#225);
#190=CURVE_STYLE('',#194,POSITIVE_LENGTH_MEASURE(0.18),#225);
#191=DRAUGHTING_PRE_DEFINED_CURVE_FONT('continuous');
#192=DRAUGHTING_PRE_DEFINED_CURVE_FONT('continuous');
#193=DRAUGHTING_PRE_DEFINED_CURVE_FONT('continuous');
#194=DRAUGHTING_PRE_DEFINED_CURVE_FONT('continuous');
#195=B_SPLINE_CURVE_WITH_KNOTS('CUTTING PART LINE',3,(#313,#314,#315,#316,
#317,#318,#319,#320,#321,#322,#323,#324,#325),.UNSPECIFIED.,.T.,.F.,(4,
3,3,3,4),(0.,0.375,0.5,0.875,1.),.UNSPECIFIED.);
#196=B_SPLINE_CURVE_WITH_KNOTS('',3,(#353,#354,#355,#356),.UNSPECIFIED.,
 .F.,.F.,(4,4),(0.,1.),.UNSPECIFIED.);
#197=B_SPLINE_CURVE_WITH_KNOTS('',3,(#357,#358,#359,#360),.UNSPECIFIED.,
 .F.,.F.,(4,4),(0.,1.),.UNSPECIFIED.);
#198=DRAUGHTING_PRE_DEFINED_COLOUR('white');
#199=DRAUGHTING_PRE_DEFINED_COLOUR('blue');
#200=PRESENTATION_LAYER_ASSIGNMENT('1','Layer 1',(#310,#311,#312,#195,#230,
#231,#232,#38,#39));
#201=STYLED_ITEM('',(#210),#310);
#202=STYLED_ITEM('',(#211),#311);
#203=STYLED_ITEM('',(#212),#312);
#204=STYLED_ITEM('',(#213),#195);
#205=STYLED_ITEM('',(#214),#230);
#206=STYLED_ITEM('',(#215),#231);
#207=STYLED_ITEM('',(#216),#232);
#208=STYLED_ITEM('',(#217),#38);
#209=STYLED_ITEM('',(#218),#39);
#210=PRESENTATION_STYLE_ASSIGNMENT((#219));
#211=PRESENTATION_STYLE_ASSIGNMENT((#220));
#212=PRESENTATION_STYLE_ASSIGNMENT((#221));
#213=PRESENTATION_STYLE_ASSIGNMENT((#187));
#214=PRESENTATION_STYLE_ASSIGNMENT((#188));
#215=PRESENTATION_STYLE_ASSIGNMENT((#189));
#216=PRESENTATION_STYLE_ASSIGNMENT((#190));
#217=PRESENTATION_STYLE_ASSIGNMENT((#28));
#218=PRESENTATION_STYLE_ASSIGNMENT((#29));
#219=POINT_STYLE('',#222,POSITIVE_LENGTH_MEASURE(3.),#225);
#220=POINT_STYLE('',#223,POSITIVE_LENGTH_MEASURE(3.),#198);
#221=POINT_STYLE('',#224,POSITIVE_LENGTH_MEASURE(3.),#225);
#222=PRE_DEFINED_POINT_MARKER_SYMBOL('plus');
#223=PRE_DEFINED_POINT_MARKER_SYMBOL('plus');
#224=PRE_DEFINED_POINT_MARKER_SYMBOL('plus');
#225=COLOUR_RGB('Medium Maroon',0.6,0.4,0.4);
#226=COLOUR_RGB('Silver Gray',0.6,0.6,0.6);
#227=COLOUR_RGB('TLS_NOCUT',0.498023956664378,0.498023956664378,0.498023956664378);
#228=COLOUR_RGB('TLS_CUT',0.8,0.8,0.8);
#229=AXIS2_PLACEMENT_3D('',#309,#253,#254);
#230=AXIS2_PLACEMENT_3D('PCS',#326,#255,#256);
#231=AXIS2_PLACEMENT_3D('MCS',#327,#257,#258);
#232=AXIS2_PLACEMENT_3D('CIP',#328,#259,#260);
#233=AXIS2_PLACEMENT_3D('',#332,#262,#263);
#234=AXIS2_PLACEMENT_3D('',#336,#265,#266);
#235=AXIS2_PLACEMENT_3D('',#337,#267,#268);
#236=AXIS2_PLACEMENT_3D('',#342,#270,#271);
#237=AXIS2_PLACEMENT_3D('',#345,#273,#274);
#238=AXIS2_PLACEMENT_3D('',#347,#275,#276);
#239=AXIS2_PLACEMENT_3D('',#351,#278,#279);
#240=AXIS2_PLACEMENT_3D('',#352,#280,#281);
#241=AXIS2_PLACEMENT_3D('',#361,#282,#283);
#242=AXIS2_PLACEMENT_3D('',#363,#285,#286);
#243=AXIS2_PLACEMENT_3D('',#364,#287,#288);
#244=AXIS2_PLACEMENT_3D('',#366,#290,#291);
#245=AXIS2_PLACEMENT_3D('',#368,#293,#294);
#246=AXIS2_PLACEMENT_3D('',#369,#295,#296);
#247=AXIS2_PLACEMENT_3D('',#370,#297,#298);
#248=AXIS2_PLACEMENT_3D('',#371,#299,#300);
#249=AXIS2_PLACEMENT_3D('',#373,#301,#302);
#250=AXIS2_PLACEMENT_3D('',#374,#303,#304);
#251=AXIS2_PLACEMENT_3D('',#376,#305,#306);
#252=AXIS2_PLACEMENT_3D('',#377,#307,#308);
#253=DIRECTION('',(0.,0.,1.));
#254=DIRECTION('',(1.,0.,0.));
#255=DIRECTION('',(0.,0.,1.));
#256=DIRECTION('',(1.,0.,0.));
#257=DIRECTION('',(0.,0.,1.));
#258=DIRECTION('',(1.,0.,0.));
#259=DIRECTION('',(0.,0.,1.));
#260=DIRECTION('',(1.,0.,0.));
#261=DIRECTION('',(0.,0.,1.));
#262=DIRECTION('',(0.,0.707106781186547,0.707106781186548));
#263=DIRECTION('',(0.,-0.707106781186548,0.707106781186547));
#264=DIRECTION('',(0.,0.,-1.));
#265=DIRECTION('',(0.,0.,-1.));
#266=DIRECTION('',(-1.,0.,0.));
#267=DIRECTION('',(0.,0.707106781186548,-0.707106781186548));
#268=DIRECTION('',(0.,0.707106781186548,0.707106781186548));
#269=DIRECTION('',(0.,0.,1.));
#270=DIRECTION('',(0.,0.707106781186548,0.707106781186547));
#271=DIRECTION('',(0.,-0.707106781186547,0.707106781186548));
#272=DIRECTION('',(0.,0.,-1.));
#273=DIRECTION('',(0.,0.,-1.));
#274=DIRECTION('',(-1.,0.,0.));
#275=DIRECTION('',(0.,0.,1.));
#276=DIRECTION('',(1.,0.,0.));
#277=DIRECTION('',(1.,0.,0.));
#278=DIRECTION('',(0.,0.,1.));
#279=DIRECTION('',(-1.,0.,0.));
#280=DIRECTION('',(0.,0.,-1.));
#281=DIRECTION('',(-1.,0.,0.));
#282=DIRECTION('',(0.,0.,-1.));
#283=DIRECTION('',(-1.,0.,0.));
#284=DIRECTION('',(1.,0.,0.));
#285=DIRECTION('',(0.,1.,0.));
#286=DIRECTION('',(0.,0.,-1.));
#287=DIRECTION('',(0.,0.707106781186547,0.707106781186548));
#288=DIRECTION('',(0.,0.707106781186548,-0.707106781186547));
#289=DIRECTION('',(1.,0.,0.));
#290=DIRECTION('',(0.,0.707106781186548,-0.707106781186548));
#291=DIRECTION('',(0.,-0.707106781186548,-0.707106781186548));
#292=DIRECTION('',(1.,0.,0.));
#293=DIRECTION('',(0.,1.,-1.44560289664734E-16));
#294=DIRECTION('',(0.,-1.43982048506075E-16,-1.));
#295=DIRECTION('',(0.,0.707106781186548,0.707106781186547));
#296=DIRECTION('',(0.,0.707106781186547,-0.707106781186548));
#297=DIRECTION('',(0.,0.,-1.));
#298=DIRECTION('',(-1.,0.,0.));
#299=DIRECTION('',(0.,0.,1.));
#300=DIRECTION('',(1.,0.,0.));
#301=DIRECTION('',(0.,0.,1.));
#302=DIRECTION('',(1.,0.,0.));
#303=DIRECTION('',(0.,0.,1.));
#304=DIRECTION('',(1.,0.,0.));
#305=DIRECTION('',(0.,0.,1.));
#306=DIRECTION('',(1.,0.,0.));
#307=DIRECTION('',(0.,0.,1.));
#308=DIRECTION('',(1.,0.,0.));
#309=CARTESIAN_POINT('',(0.,0.,0.));
#310=CARTESIAN_POINT('',(0.,0.,-56.));
#311=CARTESIAN_POINT('CRP',(-12.5,0.,-121.));
#312=CARTESIAN_POINT('CIP_DCSYS',(0.,0.,-121.));
#313=CARTESIAN_POINT('',(0.,0.,-83.5));
#314=CARTESIAN_POINT('',(0.,0.,-96.));
#315=CARTESIAN_POINT('',(0.,0.,-108.5));
#316=CARTESIAN_POINT('',(0.,0.,-121.));
#317=CARTESIAN_POINT('',(-4.16666666666667,0.,-121.));
#318=CARTESIAN_POINT('',(-8.33333333333333,0.,-121.));
#319=CARTESIAN_POINT('',(-12.5,0.,-121.));
#320=CARTESIAN_POINT('',(-12.5,0.,-108.5));
#321=CARTESIAN_POINT('',(-12.5,0.,-96.));
#322=CARTESIAN_POINT('',(-12.5,0.,-83.5));
#323=CARTESIAN_POINT('',(-8.33333333333333,0.,-83.5));
#324=CARTESIAN_POINT('',(-4.16666666666667,0.,-83.5));
#325=CARTESIAN_POINT('',(0.,0.,-83.5));
#326=CARTESIAN_POINT('',(0.,0.,0.));
#327=CARTESIAN_POINT('',(0.,0.,-56.));
#328=CARTESIAN_POINT('',(0.,0.,-121.));
#329=CARTESIAN_POINT('',(-6.78232998312528,10.5,0.));
#330=CARTESIAN_POINT('',(-6.78232998312528,10.5,-17.));
#331=CARTESIAN_POINT('',(-6.78232998312528,10.5,-0.999999999999997));
#332=CARTESIAN_POINT('',(0.,0.,-6.50000000000001));
#333=CARTESIAN_POINT('',(6.78232998312528,10.5,-17.));
#334=CARTESIAN_POINT('',(6.78232998312528,10.5,0.));
#335=CARTESIAN_POINT('',(6.78232998312528,10.5,-0.999999999999997));
#336=CARTESIAN_POINT('',(0.,0.,-0.999999999999997));
#337=CARTESIAN_POINT('',(0.,0.,-36.5));
#338=CARTESIAN_POINT('',(-6.78232998312527,10.5,-26.));
#339=CARTESIAN_POINT('',(6.78232998312527,10.5,-26.));
#340=CARTESIAN_POINT('',(-6.78232998312527,10.5,-1.51788304147971E-15));
#341=CARTESIAN_POINT('',(-6.78232998312527,10.5,-38.));
#342=CARTESIAN_POINT('',(0.,0.,-27.5));
#343=CARTESIAN_POINT('',(6.78232998312527,10.5,-38.));
#344=CARTESIAN_POINT('',(6.78232998312527,10.5,-1.51788304147971E-15));
#345=CARTESIAN_POINT('',(0.,0.,-83.5));
#346=CARTESIAN_POINT('',(-12.5,0.,-83.5));
#347=CARTESIAN_POINT('',(0.,0.,0.));
#348=CARTESIAN_POINT('',(0.,10.5,0.));
#349=CARTESIAN_POINT('',(-4.69041575982344,10.5,-1.23795024519963E-16));
#350=CARTESIAN_POINT('',(4.69041575982344,10.5,0.));
#351=CARTESIAN_POINT('',(0.,0.,0.));
#352=CARTESIAN_POINT('',(0.,12.5,0.));
#353=CARTESIAN_POINT('',(6.78232998312528,10.5,-0.999999999999997));
#354=CARTESIAN_POINT('',(6.1018010621907,10.5,-0.63075426361292));
#355=CARTESIAN_POINT('',(5.40395096505582,10.5,-0.291024067113982));
#356=CARTESIAN_POINT('',(4.69041575982344,10.5,3.88610844072734E-16));
#357=CARTESIAN_POINT('',(-4.69041575982344,10.5,-1.88966873347019E-15));
#358=CARTESIAN_POINT('',(-5.40445364369694,10.5,-0.291229090750545));
#359=CARTESIAN_POINT('',(-6.1056876934673,10.5,-0.632863096880171));
#360=CARTESIAN_POINT('',(-6.78232998312528,10.5,-0.999999999999999));
#361=CARTESIAN_POINT('',(0.,0.,0.));
#362=CARTESIAN_POINT('',(10.,10.5,-17.));
#363=CARTESIAN_POINT('',(10.,10.5,2.));
#364=CARTESIAN_POINT('',(10.,10.5,-17.));
#365=CARTESIAN_POINT('',(10.,10.5,-26.));
#366=CARTESIAN_POINT('',(10.,12.5,-24.));
#367=CARTESIAN_POINT('',(10.,10.5,-38.));
#368=CARTESIAN_POINT('',(10.,10.5,-26.));
#369=CARTESIAN_POINT('',(10.,12.5,-40.));
#370=CARTESIAN_POINT('',(0.,0.,-83.5));
#371=CARTESIAN_POINT('',(0.,0.,-83.5));
#372=CARTESIAN_POINT('',(12.5,0.,-83.5));
#373=CARTESIAN_POINT('',(0.,0.,-83.5));
#374=CARTESIAN_POINT('',(0.,0.,-121.));
#375=CARTESIAN_POINT('',(12.5,0.,-121.));
#376=CARTESIAN_POINT('',(0.,0.,0.));
#377=CARTESIAN_POINT('',(0.,0.,-121.));
#378=MECHANICAL_DESIGN_GEOMETRIC_PRESENTATION_REPRESENTATION('',(#201,#202,
#203,#204,#205,#206,#207,#208,#209),#379);
#379=(
GEOMETRIC_REPRESENTATION_CONTEXT(3)
GLOBAL_UNCERTAINTY_ASSIGNED_CONTEXT((#380))
GLOBAL_UNIT_ASSIGNED_CONTEXT((#386,#382,#381))
REPRESENTATION_CONTEXT('TOOL','TOP_LEVEL_ASSEMBLY_PART')
);
#380=UNCERTAINTY_MEASURE_WITH_UNIT(LENGTH_MEASURE(0.0508),#386,
'DISTANCE_ACCURACY_VALUE','Maximum Tolerance applied to model');
#381=(
NAMED_UNIT(*)
SI_UNIT($,.STERADIAN.)
SOLID_ANGLE_UNIT()
);
#382=(
CONVERSION_BASED_UNIT('DEGREE',#384)
NAMED_UNIT(#383)
PLANE_ANGLE_UNIT()
);
#383=DIMENSIONAL_EXPONENTS(0.,0.,0.,0.,0.,0.,0.);
#384=PLANE_ANGLE_MEASURE_WITH_UNIT(PLANE_ANGLE_MEASURE(0.0174532925),#385);
#385=(
NAMED_UNIT(*)
PLANE_ANGLE_UNIT()
SI_UNIT($,.RADIAN.)
);
#386=(
LENGTH_UNIT()
NAMED_UNIT(*)
SI_UNIT(.MILLI.,.METRE.)
);
ENDSEC;
END-ISO-10303-21;
