ISO-10303-21;
HEADER;
/* Generated by software containing ST-Developer
 * from STEP Tools, Inc. (www.steptools.com) 
 */
/* OPTION: using custom schema-name function */

FILE_DESCRIPTION(
/* description */ (''),
/* implementation_level */ '2;1');

FILE_NAME(
/* name */ 'TOOL.STP',
/* time_stamp */ '2022-11-02T10:21:39+01:00',
/* author */ (''),
/* organization */ ('SMS'),
/* preprocessor_version */ 'ST-DEVELOPER v16.7',
/* originating_system */ 'SIEMENS PLM Software NX 12.0',
/* authorisation */ '');

FILE_SCHEMA (('AUTOMOTIVE_DESIGN { 1 0 10303 214 3 1 1 1 }'));
ENDSEC;

DATA;
#10=CONSTRUCTIVE_GEOMETRY_REPRESENTATION_RELATIONSHIP(
'supplemental geometry','',#26,#11);
#11=CONSTRUCTIVE_GEOMETRY_REPRESENTATION('supplemental geometry',(#243,
#244,#245),#413);
#12=GEOMETRICALLY_BOUNDED_WIREFRAME_SHAPE_REPRESENTATION('Tool-None',(#27),
#413);
#13=SHAPE_REPRESENTATION_RELATIONSHIP('None',
'relationship between Tool-None and Tool-None',#26,#15);
#14=SHAPE_REPRESENTATION_RELATIONSHIP('None',
'relationship between Tool-None and Tool-None',#26,#12);
#15=ADVANCED_BREP_SHAPE_REPRESENTATION('Tool-None',(#39,#40),#413);
#16=SHAPE_DEFINITION_REPRESENTATION(#17,#26);
#17=PRODUCT_DEFINITION_SHAPE('','',#18);
#18=PRODUCT_DEFINITION(' ','',#20,#19);
#19=PRODUCT_DEFINITION_CONTEXT('part definition',#25,'design');
#20=PRODUCT_DEFINITION_FORMATION_WITH_SPECIFIED_SOURCE(' ',' ',#22,
 .NOT_KNOWN.);
#21=PRODUCT_RELATED_PRODUCT_CATEGORY('part','',(#22));
#22=PRODUCT('Tool','Tool',' ',(#23));
#23=PRODUCT_CONTEXT(' ',#25,'mechanical');
#24=APPLICATION_PROTOCOL_DEFINITION('international standard',
'automotive_design',2010,#25);
#25=APPLICATION_CONTEXT(
'core data for automotive mechanical design processes');
#26=SHAPE_REPRESENTATION('Tool-None',(#242),#413);
#27=GEOMETRIC_CURVE_SET('None',(#345,#346,#347,#211));
#28=VERTEX_LOOP('',#174);
#29=SURFACE_STYLE_USAGE(.BOTH.,#31);
#30=SURFACE_STYLE_USAGE(.BOTH.,#32);
#31=SURFACE_SIDE_STYLE('',(#33));
#32=SURFACE_SIDE_STYLE('',(#34));
#33=SURFACE_STYLE_FILL_AREA(#35);
#34=SURFACE_STYLE_FILL_AREA(#36);
#35=FILL_AREA_STYLE('',(#37));
#36=FILL_AREA_STYLE('',(#38));
#37=FILL_AREA_STYLE_COLOUR('',#241);
#38=FILL_AREA_STYLE_COLOUR('',#241);
#39=MANIFOLD_SOLID_BREP('NOCUT',#41);
#40=MANIFOLD_SOLID_BREP('CUT',#42);
#41=CLOSED_SHELL('',(#57,#58,#59,#60,#61,#62,#63,#64,#65,#66,#67,#68));
#42=CLOSED_SHELL('',(#69,#70,#71,#72));
#43=PLANE('',#262);
#44=PLANE('',#268);
#45=PLANE('',#270);
#46=FACE_OUTER_BOUND('',#118,.T.);
#47=FACE_OUTER_BOUND('',#125,.T.);
#48=FACE_OUTER_BOUND('',#126,.T.);
#49=TOROIDAL_SURFACE('',#257,1.785,0.3);
#50=TOROIDAL_SURFACE('',#258,1.98499999999999,0.5);
#51=CONICAL_SURFACE('',#251,2.3335,10.);
#52=CONICAL_SURFACE('',#256,1.48499999999999,30.9999999999999);
#53=CONICAL_SURFACE('',#264,1.04816,45.);
#54=CONICAL_SURFACE('',#267,3.3335,45.);
#55=CONICAL_SURFACE('',#274,2.20250984188949,45.);
#56=CONICAL_SURFACE('',#275,1.34398169209233,8.41917611801141);
#57=ADVANCED_FACE('',(#78,#79),#73,.T.);
#58=ADVANCED_FACE('',(#80,#81),#51,.T.);
#59=ADVANCED_FACE('',(#82,#83),#74,.T.);
#60=ADVANCED_FACE('',(#84,#85),#52,.T.);
#61=ADVANCED_FACE('',(#86,#87),#49,.F.);
#62=ADVANCED_FACE('',(#88,#89),#50,.F.);
#63=ADVANCED_FACE('',(#90,#91),#75,.T.);
#64=ADVANCED_FACE('',(#46),#43,.F.);
#65=ADVANCED_FACE('',(#92,#93),#53,.T.);
#66=ADVANCED_FACE('',(#94,#95),#76,.T.);
#67=ADVANCED_FACE('',(#96,#97),#54,.T.);
#68=ADVANCED_FACE('',(#47),#44,.T.);
#69=ADVANCED_FACE('',(#48),#45,.T.);
#70=ADVANCED_FACE('',(#98,#99),#77,.T.);
#71=ADVANCED_FACE('',(#100,#101),#55,.T.);
#72=ADVANCED_FACE('',(#102,#103),#56,.T.);
#73=CYLINDRICAL_SURFACE('',#248,2.12250984188951);
#74=CYLINDRICAL_SURFACE('',#254,1.485);
#75=CYLINDRICAL_SURFACE('',#260,2.1335);
#76=CYLINDRICAL_SURFACE('',#266,2.04816);
#77=CYLINDRICAL_SURFACE('',#272,2.12250984188951);
#78=FACE_BOUND('',#104,.T.);
#79=FACE_BOUND('',#105,.T.);
#80=FACE_BOUND('',#106,.T.);
#81=FACE_BOUND('',#107,.T.);
#82=FACE_BOUND('',#108,.T.);
#83=FACE_BOUND('',#109,.T.);
#84=FACE_BOUND('',#110,.T.);
#85=FACE_BOUND('',#111,.T.);
#86=FACE_BOUND('',#112,.T.);
#87=FACE_BOUND('',#113,.T.);
#88=FACE_BOUND('',#114,.T.);
#89=FACE_BOUND('',#115,.T.);
#90=FACE_BOUND('',#116,.T.);
#91=FACE_BOUND('',#117,.T.);
#92=FACE_BOUND('',#119,.T.);
#93=FACE_BOUND('',#120,.T.);
#94=FACE_BOUND('',#121,.T.);
#95=FACE_BOUND('',#122,.T.);
#96=FACE_BOUND('',#123,.T.);
#97=FACE_BOUND('',#124,.T.);
#98=FACE_BOUND('',#127,.T.);
#99=FACE_BOUND('',#128,.T.);
#100=FACE_BOUND('',#129,.T.);
#101=FACE_BOUND('',#28,.T.);
#102=FACE_BOUND('',#130,.T.);
#103=FACE_BOUND('',#131,.T.);
#104=EDGE_LOOP('',(#132));
#105=EDGE_LOOP('',(#133));
#106=EDGE_LOOP('',(#134));
#107=EDGE_LOOP('',(#135));
#108=EDGE_LOOP('',(#136));
#109=EDGE_LOOP('',(#137));
#110=EDGE_LOOP('',(#138));
#111=EDGE_LOOP('',(#139));
#112=EDGE_LOOP('',(#140));
#113=EDGE_LOOP('',(#141));
#114=EDGE_LOOP('',(#142));
#115=EDGE_LOOP('',(#143));
#116=EDGE_LOOP('',(#144));
#117=EDGE_LOOP('',(#145));
#118=EDGE_LOOP('',(#146));
#119=EDGE_LOOP('',(#147));
#120=EDGE_LOOP('',(#148));
#121=EDGE_LOOP('',(#149));
#122=EDGE_LOOP('',(#150));
#123=EDGE_LOOP('',(#151));
#124=EDGE_LOOP('',(#152));
#125=EDGE_LOOP('',(#153));
#126=EDGE_LOOP('',(#154));
#127=EDGE_LOOP('',(#155));
#128=EDGE_LOOP('',(#156));
#129=EDGE_LOOP('',(#157));
#130=EDGE_LOOP('',(#158));
#131=EDGE_LOOP('',(#159));
#132=ORIENTED_EDGE('',*,*,#175,.T.);
#133=ORIENTED_EDGE('',*,*,#176,.T.);
#134=ORIENTED_EDGE('',*,*,#177,.T.);
#135=ORIENTED_EDGE('',*,*,#178,.F.);
#136=ORIENTED_EDGE('',*,*,#179,.T.);
#137=ORIENTED_EDGE('',*,*,#180,.T.);
#138=ORIENTED_EDGE('',*,*,#181,.T.);
#139=ORIENTED_EDGE('',*,*,#175,.F.);
#140=ORIENTED_EDGE('',*,*,#180,.F.);
#141=ORIENTED_EDGE('',*,*,#181,.F.);
#142=ORIENTED_EDGE('',*,*,#177,.F.);
#143=ORIENTED_EDGE('',*,*,#179,.F.);
#144=ORIENTED_EDGE('',*,*,#178,.T.);
#145=ORIENTED_EDGE('',*,*,#182,.T.);
#146=ORIENTED_EDGE('',*,*,#183,.T.);
#147=ORIENTED_EDGE('',*,*,#183,.F.);
#148=ORIENTED_EDGE('',*,*,#184,.T.);
#149=ORIENTED_EDGE('',*,*,#185,.F.);
#150=ORIENTED_EDGE('',*,*,#184,.F.);
#151=ORIENTED_EDGE('',*,*,#185,.T.);
#152=ORIENTED_EDGE('',*,*,#182,.F.);
#153=ORIENTED_EDGE('',*,*,#176,.F.);
#154=ORIENTED_EDGE('',*,*,#186,.F.);
#155=ORIENTED_EDGE('',*,*,#187,.T.);
#156=ORIENTED_EDGE('',*,*,#186,.T.);
#157=ORIENTED_EDGE('',*,*,#188,.F.);
#158=ORIENTED_EDGE('',*,*,#188,.T.);
#159=ORIENTED_EDGE('',*,*,#187,.F.);
#160=VERTEX_POINT('',#368);
#161=VERTEX_POINT('',#370);
#162=VERTEX_POINT('',#373);
#163=VERTEX_POINT('',#375);
#164=VERTEX_POINT('',#378);
#165=VERTEX_POINT('',#380);
#166=VERTEX_POINT('',#383);
#167=VERTEX_POINT('',#388);
#168=VERTEX_POINT('',#391);
#169=VERTEX_POINT('',#394);
#170=VERTEX_POINT('',#397);
#171=VERTEX_POINT('',#402);
#172=VERTEX_POINT('',#405);
#173=VERTEX_POINT('',#408);
#174=VERTEX_POINT('',#409);
#175=EDGE_CURVE('',#160,#160,#189,.T.);
#176=EDGE_CURVE('',#161,#161,#190,.T.);
#177=EDGE_CURVE('',#162,#162,#191,.T.);
#178=EDGE_CURVE('',#163,#163,#192,.T.);
#179=EDGE_CURVE('',#164,#164,#193,.T.);
#180=EDGE_CURVE('',#165,#165,#194,.T.);
#181=EDGE_CURVE('',#166,#166,#195,.T.);
#182=EDGE_CURVE('',#167,#167,#196,.T.);
#183=EDGE_CURVE('',#168,#168,#197,.T.);
#184=EDGE_CURVE('',#169,#169,#198,.T.);
#185=EDGE_CURVE('',#170,#170,#199,.T.);
#186=EDGE_CURVE('',#171,#171,#200,.T.);
#187=EDGE_CURVE('',#172,#172,#201,.T.);
#188=EDGE_CURVE('',#173,#173,#202,.T.);
#189=CIRCLE('',#246,2.12250984188951);
#190=CIRCLE('',#247,2.12250984188951);
#191=CIRCLE('',#249,1.49259612349389);
#192=CIRCLE('',#250,2.13350000000001);
#193=CIRCLE('',#252,1.485);
#194=CIRCLE('',#253,1.485);
#195=CIRCLE('',#255,1.52784980978936);
#196=CIRCLE('',#259,2.1335);
#197=CIRCLE('',#261,1.04816);
#198=CIRCLE('',#263,2.04816);
#199=CIRCLE('',#265,2.04816);
#200=CIRCLE('',#269,2.12250984188951);
#201=CIRCLE('',#271,2.12250984188951);
#202=CIRCLE('',#273,1.67821873676338);
#203=CURVE_STYLE('',#207,POSITIVE_LENGTH_MEASURE(0.18),#213);
#204=CURVE_STYLE('',#208,POSITIVE_LENGTH_MEASURE(0.13),#240);
#205=CURVE_STYLE('',#209,POSITIVE_LENGTH_MEASURE(0.18),#239);
#206=CURVE_STYLE('',#210,POSITIVE_LENGTH_MEASURE(0.18),#239);
#207=DRAUGHTING_PRE_DEFINED_CURVE_FONT('continuous');
#208=DRAUGHTING_PRE_DEFINED_CURVE_FONT('continuous');
#209=DRAUGHTING_PRE_DEFINED_CURVE_FONT('continuous');
#210=DRAUGHTING_PRE_DEFINED_CURVE_FONT('continuous');
#211=B_SPLINE_CURVE_WITH_KNOTS('CUTTING PART LINE',3,(#348,#349,#350,#351,
#352,#353,#354,#355,#356,#357,#358,#359,#360,#361,#362,#363),
 .UNSPECIFIED.,.T.,.F.,(4,3,3,3,3,4),(0.,0.0649277140046334,0.521331483666832,
0.593932711078658,0.686757734495536,1.),.UNSPECIFIED.);
#212=DRAUGHTING_PRE_DEFINED_COLOUR('white');
#213=DRAUGHTING_PRE_DEFINED_COLOUR('blue');
#214=PRESENTATION_LAYER_ASSIGNMENT('1','Layer 1',(#345,#346,#347,#211,#243,
#244,#245,#39,#40));
#215=STYLED_ITEM('',(#224),#345);
#216=STYLED_ITEM('',(#225),#346);
#217=STYLED_ITEM('',(#226),#347);
#218=STYLED_ITEM('',(#227),#211);
#219=STYLED_ITEM('',(#228),#243);
#220=STYLED_ITEM('',(#229),#244);
#221=STYLED_ITEM('',(#230),#245);
#222=STYLED_ITEM('',(#231),#39);
#223=STYLED_ITEM('',(#232),#40);
#224=PRESENTATION_STYLE_ASSIGNMENT((#233));
#225=PRESENTATION_STYLE_ASSIGNMENT((#234));
#226=PRESENTATION_STYLE_ASSIGNMENT((#235));
#227=PRESENTATION_STYLE_ASSIGNMENT((#203));
#228=PRESENTATION_STYLE_ASSIGNMENT((#204));
#229=PRESENTATION_STYLE_ASSIGNMENT((#205));
#230=PRESENTATION_STYLE_ASSIGNMENT((#206));
#231=PRESENTATION_STYLE_ASSIGNMENT((#29));
#232=PRESENTATION_STYLE_ASSIGNMENT((#30));
#233=POINT_STYLE('',#236,POSITIVE_LENGTH_MEASURE(3.),#239);
#234=POINT_STYLE('',#237,POSITIVE_LENGTH_MEASURE(3.),#212);
#235=POINT_STYLE('',#238,POSITIVE_LENGTH_MEASURE(3.),#239);
#236=PRE_DEFINED_POINT_MARKER_SYMBOL('plus');
#237=PRE_DEFINED_POINT_MARKER_SYMBOL('plus');
#238=PRE_DEFINED_POINT_MARKER_SYMBOL('plus');
#239=COLOUR_RGB('Medium Maroon',0.6,0.4,0.4);
#240=COLOUR_RGB('Silver Gray',0.6,0.6,0.6);
#241=COLOUR_RGB('Pale Sky',0.882337682154574,0.960769054703594,1.);
#242=AXIS2_PLACEMENT_3D('',#344,#276,#277);
#243=AXIS2_PLACEMENT_3D('PCS',#364,#278,#279);
#244=AXIS2_PLACEMENT_3D('MCS',#365,#280,#281);
#245=AXIS2_PLACEMENT_3D('CIP',#366,#282,#283);
#246=AXIS2_PLACEMENT_3D('',#367,#284,#285);
#247=AXIS2_PLACEMENT_3D('',#369,#286,#287);
#248=AXIS2_PLACEMENT_3D('',#371,#288,#289);
#249=AXIS2_PLACEMENT_3D('',#372,#290,#291);
#250=AXIS2_PLACEMENT_3D('',#374,#292,#293);
#251=AXIS2_PLACEMENT_3D('',#376,#294,#295);
#252=AXIS2_PLACEMENT_3D('',#377,#296,#297);
#253=AXIS2_PLACEMENT_3D('',#379,#298,#299);
#254=AXIS2_PLACEMENT_3D('',#381,#300,#301);
#255=AXIS2_PLACEMENT_3D('',#382,#302,#303);
#256=AXIS2_PLACEMENT_3D('',#384,#304,#305);
#257=AXIS2_PLACEMENT_3D('',#385,#306,#307);
#258=AXIS2_PLACEMENT_3D('',#386,#308,#309);
#259=AXIS2_PLACEMENT_3D('',#387,#310,#311);
#260=AXIS2_PLACEMENT_3D('',#389,#312,#313);
#261=AXIS2_PLACEMENT_3D('',#390,#314,#315);
#262=AXIS2_PLACEMENT_3D('',#392,#316,#317);
#263=AXIS2_PLACEMENT_3D('',#393,#318,#319);
#264=AXIS2_PLACEMENT_3D('',#395,#320,#321);
#265=AXIS2_PLACEMENT_3D('',#396,#322,#323);
#266=AXIS2_PLACEMENT_3D('',#398,#324,#325);
#267=AXIS2_PLACEMENT_3D('',#399,#326,#327);
#268=AXIS2_PLACEMENT_3D('',#400,#328,#329);
#269=AXIS2_PLACEMENT_3D('',#401,#330,#331);
#270=AXIS2_PLACEMENT_3D('',#403,#332,#333);
#271=AXIS2_PLACEMENT_3D('',#404,#334,#335);
#272=AXIS2_PLACEMENT_3D('',#406,#336,#337);
#273=AXIS2_PLACEMENT_3D('',#407,#338,#339);
#274=AXIS2_PLACEMENT_3D('',#410,#340,#341);
#275=AXIS2_PLACEMENT_3D('',#411,#342,#343);
#276=DIRECTION('',(0.,0.,1.));
#277=DIRECTION('',(1.,0.,0.));
#278=DIRECTION('',(0.,0.,1.));
#279=DIRECTION('',(1.,0.,0.));
#280=DIRECTION('',(0.,0.,1.));
#281=DIRECTION('',(1.,0.,0.));
#282=DIRECTION('',(0.,0.,1.));
#283=DIRECTION('',(1.,0.,0.));
#284=DIRECTION('',(0.,0.,-1.));
#285=DIRECTION('',(-1.,0.,0.));
#286=DIRECTION('',(0.,0.,1.));
#287=DIRECTION('',(-1.,0.,0.));
#288=DIRECTION('',(0.,0.,1.));
#289=DIRECTION('',(1.,0.,0.));
#290=DIRECTION('',(-1.25731098735339E-16,0.,1.));
#291=DIRECTION('',(1.,0.,0.));
#292=DIRECTION('',(0.,0.,1.));
#293=DIRECTION('',(1.,0.,0.));
#294=DIRECTION('',(-1.25731098735339E-16,0.,1.));
#295=DIRECTION('',(1.,0.,7.76768748902E-17));
#296=DIRECTION('',(1.25731098735339E-16,0.,-1.));
#297=DIRECTION('',(-1.,0.,0.));
#298=DIRECTION('',(-1.25731098735339E-16,0.,1.));
#299=DIRECTION('',(-1.,0.,0.));
#300=DIRECTION('',(1.25731098735339E-16,0.,-1.));
#301=DIRECTION('',(-1.,0.,0.));
#302=DIRECTION('',(1.25731098735339E-16,0.,-1.));
#303=DIRECTION('',(-1.,0.,0.));
#304=DIRECTION('',(1.25731098735339E-16,0.,-1.));
#305=DIRECTION('',(-1.,0.,-8.06385168132656E-17));
#306=DIRECTION('',(1.25731098735339E-16,0.,-1.));
#307=DIRECTION('',(-1.,0.,0.));
#308=DIRECTION('',(1.25731098735339E-16,0.,-1.));
#309=DIRECTION('',(-1.,0.,0.));
#310=DIRECTION('',(0.,0.,-1.));
#311=DIRECTION('',(-1.,0.,0.));
#312=DIRECTION('',(0.,0.,1.));
#313=DIRECTION('',(1.,0.,0.));
#314=DIRECTION('',(0.,0.,1.));
#315=DIRECTION('',(1.,0.,0.));
#316=DIRECTION('',(1.98358150082752E-16,0.,-1.));
#317=DIRECTION('',(-1.,0.,-1.98358150082752E-16));
#318=DIRECTION('',(0.,0.,1.));
#319=DIRECTION('',(-1.,0.,0.));
#320=DIRECTION('',(0.,0.,-1.));
#321=DIRECTION('',(-1.,0.,0.));
#322=DIRECTION('',(0.,0.,-1.));
#323=DIRECTION('',(1.,0.,0.));
#324=DIRECTION('',(0.,0.,1.));
#325=DIRECTION('',(1.,0.,0.));
#326=DIRECTION('',(0.,0.,-1.));
#327=DIRECTION('',(-1.,0.,6.91583995142914E-17));
#328=DIRECTION('',(0.,0.,-1.));
#329=DIRECTION('',(-1.,0.,0.));
#330=DIRECTION('',(0.,0.,-1.));
#331=DIRECTION('',(1.,0.,0.));
#332=DIRECTION('',(0.,0.,1.));
#333=DIRECTION('',(1.,0.,0.));
#334=DIRECTION('',(0.,0.,1.));
#335=DIRECTION('',(1.,0.,0.));
#336=DIRECTION('',(0.,0.,1.));
#337=DIRECTION('',(1.,0.,0.));
#338=DIRECTION('',(0.,0.,1.));
#339=DIRECTION('',(-1.,0.,0.));
#340=DIRECTION('',(-4.78868177265026E-16,0.,1.));
#341=DIRECTION('',(1.,0.,4.36189604050304E-16));
#342=DIRECTION('',(0.,0.,1.));
#343=DIRECTION('',(1.,0.,3.71677172971165E-16));
#344=CARTESIAN_POINT('',(0.,0.,0.));
#345=CARTESIAN_POINT('',(0.,0.,-21.35));
#346=CARTESIAN_POINT('CRP',(-2.12250984188951,0.,-63.));
#347=CARTESIAN_POINT('CIP_DCSYS',(0.,0.,-63.));
#348=CARTESIAN_POINT('',(-2.12250984188951,0.,-49.5));
#349=CARTESIAN_POINT('',(-1.41500656125967,0.,-49.5));
#350=CARTESIAN_POINT('',(-0.707503280629836,0.,-49.5));
#351=CARTESIAN_POINT('',(0.,0.,-49.5));
#352=CARTESIAN_POINT('',(0.,0.,-54.4733333333333));
#353=CARTESIAN_POINT('',(0.,0.,-59.4466666666667));
#354=CARTESIAN_POINT('',(2.33146835171283E-15,0.,-64.42));
#355=CARTESIAN_POINT('',(-0.559406245587785,0.,-63.8605937544122));
#356=CARTESIAN_POINT('',(-1.11881249117557,0.,-63.3011875088244));
#357=CARTESIAN_POINT('',(-1.67821873676337,0.,-62.7417812632366));
#358=CARTESIAN_POINT('',(-1.82631577180542,0.,-61.7411875088244));
#359=CARTESIAN_POINT('',(-1.97441280684747,0.,-60.7405937544122));
#360=CARTESIAN_POINT('',(-2.12250984188951,0.,-59.74));
#361=CARTESIAN_POINT('',(-2.12250984188951,0.,-56.3266666666667));
#362=CARTESIAN_POINT('',(-2.12250984188951,0.,-52.9133333333333));
#363=CARTESIAN_POINT('',(-2.12250984188951,0.,-49.5));
#364=CARTESIAN_POINT('',(0.,0.,0.));
#365=CARTESIAN_POINT('',(0.,0.,-21.35));
#366=CARTESIAN_POINT('',(0.,0.,-63.));
#367=CARTESIAN_POINT('',(0.,0.,-49.366857641412));
#368=CARTESIAN_POINT('',(-2.12250984188951,0.,-49.366857641412));
#369=CARTESIAN_POINT('',(0.,0.,-49.5));
#370=CARTESIAN_POINT('',(-2.12250984188951,0.,-49.5));
#371=CARTESIAN_POINT('',(0.,0.,20.9080749503476));
#372=CARTESIAN_POINT('',(4.6076804810463E-15,0.,-41.4569202429295));
#373=CARTESIAN_POINT('',(1.4925961234939,0.,-41.4569202429295));
#374=CARTESIAN_POINT('',(0.,0.,-37.8221737399779));
#375=CARTESIAN_POINT('',(2.13350000000001,0.,-37.8221737399779));
#376=CARTESIAN_POINT('',(4.00806851072211E-15,0.,-36.6879173760544));
#377=CARTESIAN_POINT('',(4.61859696913203E-15,0.,-41.543744331763));
#378=CARTESIAN_POINT('',(-1.48499999999999,0.,-41.543744331763));
#379=CARTESIAN_POINT('',(5.45834509471586E-15,0.,-48.2226657285408));
#380=CARTESIAN_POINT('',(-1.48499999999999,0.,-48.2226657285408));
#381=CARTESIAN_POINT('',(4.00806851072211E-15,0.,-36.6879173760544));
#382=CARTESIAN_POINT('',(5.47777198563055E-15,0.,-48.3771771510138));
#383=CARTESIAN_POINT('',(-1.52784980978936,0.,-48.3771771510138));
#384=CARTESIAN_POINT('',(5.46880559060514E-15,0.,-48.3058630917587));
#385=CARTESIAN_POINT('',(5.45834509471586E-15,0.,-48.2226657285408));
#386=CARTESIAN_POINT('',(4.61859696913203E-15,0.,-41.543744331763));
#387=CARTESIAN_POINT('',(0.,0.,-7.07034));
#388=CARTESIAN_POINT('',(-2.1335,0.,-7.07034));
#389=CARTESIAN_POINT('',(0.,0.,20.9080749503476));
#390=CARTESIAN_POINT('',(0.,0.,0.));
#391=CARTESIAN_POINT('',(1.04816,0.,0.));
#392=CARTESIAN_POINT('',(2.3335,0.,2.31434371609052E-16));
#393=CARTESIAN_POINT('',(0.,0.,-1.));
#394=CARTESIAN_POINT('',(-2.04816,0.,-1.));
#395=CARTESIAN_POINT('',(0.,0.,0.));
#396=CARTESIAN_POINT('',(0.,0.,-6.985));
#397=CARTESIAN_POINT('',(2.04816,0.,-6.985));
#398=CARTESIAN_POINT('',(0.,0.,20.9080749503476));
#399=CARTESIAN_POINT('',(0.,0.,-8.27034));
#400=CARTESIAN_POINT('',(0.,0.,-49.5));
#401=CARTESIAN_POINT('',(0.,0.,-49.5));
#402=CARTESIAN_POINT('',(2.12250984188951,0.,-49.5));
#403=CARTESIAN_POINT('',(0.,0.,-49.5));
#404=CARTESIAN_POINT('',(0.,0.,-59.74));
#405=CARTESIAN_POINT('',(2.12250984188951,0.,-59.74));
#406=CARTESIAN_POINT('',(0.,0.,20.9080749503476));
#407=CARTESIAN_POINT('',(1.80146347198705E-14,0.,-62.7417812632366));
#408=CARTESIAN_POINT('',(-1.67821873676336,0.,-62.7417812632366));
#409=CARTESIAN_POINT('',(1.86517468137026E-14,0.,-64.42));
#410=CARTESIAN_POINT('',(1.77635683940025E-14,0.,-62.2174901581105));
#411=CARTESIAN_POINT('',(0.,0.,-65.));
#412=MECHANICAL_DESIGN_GEOMETRIC_PRESENTATION_REPRESENTATION('',(#215,#216,
#217,#218,#219,#220,#221,#222,#223),#413);
#413=(
GEOMETRIC_REPRESENTATION_CONTEXT(3)
GLOBAL_UNCERTAINTY_ASSIGNED_CONTEXT((#414))
GLOBAL_UNIT_ASSIGNED_CONTEXT((#420,#416,#415))
REPRESENTATION_CONTEXT('TOOL','TOP_LEVEL_ASSEMBLY_PART')
);
#414=UNCERTAINTY_MEASURE_WITH_UNIT(LENGTH_MEASURE(2.E-5),#420,
'DISTANCE_ACCURACY_VALUE','Maximum Tolerance applied to model');
#415=(
NAMED_UNIT(*)
SI_UNIT($,.STERADIAN.)
SOLID_ANGLE_UNIT()
);
#416=(
CONVERSION_BASED_UNIT('DEGREE',#418)
NAMED_UNIT(#417)
PLANE_ANGLE_UNIT()
);
#417=DIMENSIONAL_EXPONENTS(0.,0.,0.,0.,0.,0.,0.);
#418=PLANE_ANGLE_MEASURE_WITH_UNIT(PLANE_ANGLE_MEASURE(0.0174532925),#419);
#419=(
NAMED_UNIT(*)
PLANE_ANGLE_UNIT()
SI_UNIT($,.RADIAN.)
);
#420=(
LENGTH_UNIT()
NAMED_UNIT(*)
SI_UNIT(.MILLI.,.METRE.)
);
ENDSEC;
END-ISO-10303-21;
