ISO-10303-21;
HEADER;
/* Generated by software containing ST-Developer
 * from STEP Tools, Inc. (www.steptools.com) 
 */
/* OPTION: using custom schema-name function */

FILE_DESCRIPTION(
/* description */ (''),
/* implementation_level */ '2;1');

FILE_NAME(
/* name */ 'TOOL.STP',
/* time_stamp */ '2022-11-02T06:27:43+01:00',
/* author */ (''),
/* organization */ ('SMS'),
/* preprocessor_version */ 'ST-DEVELOPER v16.7',
/* originating_system */ 'SIEMENS PLM Software NX 12.0',
/* authorisation */ '');

FILE_SCHEMA (('AUTOMOTIVE_DESIGN { 1 0 10303 214 3 1 1 1 }'));
ENDSEC;

DATA;
#10=CONSTRUCTIVE_GEOMETRY_REPRESENTATION_RELATIONSHIP(
'supplemental geometry','',#26,#11);
#11=CONSTRUCTIVE_GEOMETRY_REPRESENTATION('supplemental geometry',(#301,
#302,#303),#526);
#12=GEOMETRICALLY_BOUNDED_WIREFRAME_SHAPE_REPRESENTATION('Tool-None',(#27),
#526);
#13=SHAPE_REPRESENTATION_RELATIONSHIP('None',
'relationship between Tool-None and Tool-None',#26,#15);
#14=SHAPE_REPRESENTATION_RELATIONSHIP('None',
'relationship between Tool-None and Tool-None',#26,#12);
#15=ADVANCED_BREP_SHAPE_REPRESENTATION('Tool-None',(#38,#39),#526);
#16=SHAPE_DEFINITION_REPRESENTATION(#17,#26);
#17=PRODUCT_DEFINITION_SHAPE('','',#18);
#18=PRODUCT_DEFINITION(' ','',#20,#19);
#19=PRODUCT_DEFINITION_CONTEXT('part definition',#25,'design');
#20=PRODUCT_DEFINITION_FORMATION_WITH_SPECIFIED_SOURCE(' ',' ',#22,
 .NOT_KNOWN.);
#21=PRODUCT_RELATED_PRODUCT_CATEGORY('part','',(#22));
#22=PRODUCT('Tool','Tool',' ',(#23));
#23=PRODUCT_CONTEXT(' ',#25,'mechanical');
#24=APPLICATION_PROTOCOL_DEFINITION('international standard',
'automotive_design',2010,#25);
#25=APPLICATION_CONTEXT(
'core data for automotive mechanical design processes');
#26=SHAPE_REPRESENTATION('Tool-None',(#300),#526);
#27=GEOMETRIC_CURVE_SET('None',(#433,#434,#435,#269));
#28=SURFACE_STYLE_USAGE(.BOTH.,#30);
#29=SURFACE_STYLE_USAGE(.BOTH.,#31);
#30=SURFACE_SIDE_STYLE('',(#32));
#31=SURFACE_SIDE_STYLE('',(#33));
#32=SURFACE_STYLE_FILL_AREA(#34);
#33=SURFACE_STYLE_FILL_AREA(#35);
#34=FILL_AREA_STYLE('',(#36));
#35=FILL_AREA_STYLE('',(#37));
#36=FILL_AREA_STYLE_COLOUR('',#299);
#37=FILL_AREA_STYLE_COLOUR('',#299);
#38=MANIFOLD_SOLID_BREP('NOCUT',#40);
#39=MANIFOLD_SOLID_BREP('CUT',#41);
#40=CLOSED_SHELL('',(#60,#61,#62,#63,#64,#65,#66,#67,#68,#69,#70,#71,#72,
#73));
#41=CLOSED_SHELL('',(#74,#75,#76,#77,#78,#79,#80));
#42=FACE_OUTER_BOUND('',#151,.T.);
#43=FACE_OUTER_BOUND('',#152,.T.);
#44=VERTEX_LOOP('',#215);
#45=VERTEX_LOOP('',#219);
#46=PLANE('',#319);
#47=PLANE('',#330);
#48=PLANE('',#332);
#49=PLANE('',#342);
#50=CONICAL_SURFACE('',#313,5.84999999999999,60.0000000000001);
#51=CONICAL_SURFACE('',#321,4.16,45.);
#52=CONICAL_SURFACE('',#324,7.2,45.);
#53=CONICAL_SURFACE('',#326,1.,30.0000000000001);
#54=CONICAL_SURFACE('',#329,1.73472347597681E-15,59.9999999999999);
#55=CONICAL_SURFACE('',#336,0.,60.0000000000003);
#56=CONICAL_SURFACE('',#340,1.,30.0000000000003);
#57=CONICAL_SURFACE('',#343,7.07067363829639,8.51189101967812);
#58=TOROIDAL_SURFACE('',#309,7.34999999999999,1.5);
#59=TOROIDAL_SURFACE('',#314,7.24999999999999,1.4);
#60=ADVANCED_FACE('',(#88,#89),#81,.T.);
#61=ADVANCED_FACE('',(#90,#91),#58,.F.);
#62=ADVANCED_FACE('',(#92,#93),#82,.T.);
#63=ADVANCED_FACE('',(#94,#95),#50,.T.);
#64=ADVANCED_FACE('',(#96,#97),#59,.F.);
#65=ADVANCED_FACE('',(#98,#99),#83,.T.);
#66=ADVANCED_FACE('',(#100,#101),#46,.F.);
#67=ADVANCED_FACE('',(#102,#103),#51,.T.);
#68=ADVANCED_FACE('',(#104,#105),#84,.T.);
#69=ADVANCED_FACE('',(#106,#107),#52,.T.);
#70=ADVANCED_FACE('',(#108,#109),#53,.F.);
#71=ADVANCED_FACE('',(#110,#111),#85,.F.);
#72=ADVANCED_FACE('',(#112,#113),#54,.F.);
#73=ADVANCED_FACE('',(#42),#47,.T.);
#74=ADVANCED_FACE('',(#43),#48,.T.);
#75=ADVANCED_FACE('',(#114,#115),#86,.T.);
#76=ADVANCED_FACE('',(#116,#117),#55,.F.);
#77=ADVANCED_FACE('',(#118,#119),#87,.F.);
#78=ADVANCED_FACE('',(#120,#121),#56,.F.);
#79=ADVANCED_FACE('',(#122,#123),#49,.F.);
#80=ADVANCED_FACE('',(#124,#125),#57,.T.);
#81=CYLINDRICAL_SURFACE('',#306,8.06294052734387);
#82=CYLINDRICAL_SURFACE('',#311,5.84999999999999);
#83=CYLINDRICAL_SURFACE('',#316,6.);
#84=CYLINDRICAL_SURFACE('',#323,5.76);
#85=CYLINDRICAL_SURFACE('',#328,1.);
#86=CYLINDRICAL_SURFACE('',#334,8.06294052734387);
#87=CYLINDRICAL_SURFACE('',#338,1.);
#88=FACE_BOUND('',#126,.T.);
#89=FACE_BOUND('',#127,.T.);
#90=FACE_BOUND('',#128,.T.);
#91=FACE_BOUND('',#129,.T.);
#92=FACE_BOUND('',#130,.T.);
#93=FACE_BOUND('',#131,.T.);
#94=FACE_BOUND('',#132,.T.);
#95=FACE_BOUND('',#133,.T.);
#96=FACE_BOUND('',#134,.T.);
#97=FACE_BOUND('',#135,.T.);
#98=FACE_BOUND('',#136,.T.);
#99=FACE_BOUND('',#137,.T.);
#100=FACE_BOUND('',#138,.T.);
#101=FACE_BOUND('',#139,.T.);
#102=FACE_BOUND('',#140,.T.);
#103=FACE_BOUND('',#141,.T.);
#104=FACE_BOUND('',#142,.T.);
#105=FACE_BOUND('',#143,.T.);
#106=FACE_BOUND('',#144,.T.);
#107=FACE_BOUND('',#145,.T.);
#108=FACE_BOUND('',#146,.T.);
#109=FACE_BOUND('',#147,.T.);
#110=FACE_BOUND('',#148,.T.);
#111=FACE_BOUND('',#149,.T.);
#112=FACE_BOUND('',#150,.T.);
#113=FACE_BOUND('',#44,.T.);
#114=FACE_BOUND('',#153,.T.);
#115=FACE_BOUND('',#154,.T.);
#116=FACE_BOUND('',#155,.T.);
#117=FACE_BOUND('',#45,.T.);
#118=FACE_BOUND('',#156,.T.);
#119=FACE_BOUND('',#157,.T.);
#120=FACE_BOUND('',#158,.T.);
#121=FACE_BOUND('',#159,.T.);
#122=FACE_BOUND('',#160,.T.);
#123=FACE_BOUND('',#161,.T.);
#124=FACE_BOUND('',#162,.T.);
#125=FACE_BOUND('',#163,.T.);
#126=EDGE_LOOP('',(#164));
#127=EDGE_LOOP('',(#165));
#128=EDGE_LOOP('',(#166));
#129=EDGE_LOOP('',(#167));
#130=EDGE_LOOP('',(#168));
#131=EDGE_LOOP('',(#169));
#132=EDGE_LOOP('',(#170));
#133=EDGE_LOOP('',(#171));
#134=EDGE_LOOP('',(#172));
#135=EDGE_LOOP('',(#173));
#136=EDGE_LOOP('',(#174));
#137=EDGE_LOOP('',(#175));
#138=EDGE_LOOP('',(#176));
#139=EDGE_LOOP('',(#177));
#140=EDGE_LOOP('',(#178));
#141=EDGE_LOOP('',(#179));
#142=EDGE_LOOP('',(#180));
#143=EDGE_LOOP('',(#181));
#144=EDGE_LOOP('',(#182));
#145=EDGE_LOOP('',(#183));
#146=EDGE_LOOP('',(#184));
#147=EDGE_LOOP('',(#185));
#148=EDGE_LOOP('',(#186));
#149=EDGE_LOOP('',(#187));
#150=EDGE_LOOP('',(#188));
#151=EDGE_LOOP('',(#189));
#152=EDGE_LOOP('',(#190));
#153=EDGE_LOOP('',(#191));
#154=EDGE_LOOP('',(#192));
#155=EDGE_LOOP('',(#193));
#156=EDGE_LOOP('',(#194));
#157=EDGE_LOOP('',(#195));
#158=EDGE_LOOP('',(#196));
#159=EDGE_LOOP('',(#197));
#160=EDGE_LOOP('',(#198));
#161=EDGE_LOOP('',(#199));
#162=EDGE_LOOP('',(#200));
#163=EDGE_LOOP('',(#201));
#164=ORIENTED_EDGE('',*,*,#223,.T.);
#165=ORIENTED_EDGE('',*,*,#224,.T.);
#166=ORIENTED_EDGE('',*,*,#225,.F.);
#167=ORIENTED_EDGE('',*,*,#226,.F.);
#168=ORIENTED_EDGE('',*,*,#227,.T.);
#169=ORIENTED_EDGE('',*,*,#225,.T.);
#170=ORIENTED_EDGE('',*,*,#228,.T.);
#171=ORIENTED_EDGE('',*,*,#223,.F.);
#172=ORIENTED_EDGE('',*,*,#227,.F.);
#173=ORIENTED_EDGE('',*,*,#228,.F.);
#174=ORIENTED_EDGE('',*,*,#226,.T.);
#175=ORIENTED_EDGE('',*,*,#229,.T.);
#176=ORIENTED_EDGE('',*,*,#230,.T.);
#177=ORIENTED_EDGE('',*,*,#231,.T.);
#178=ORIENTED_EDGE('',*,*,#231,.F.);
#179=ORIENTED_EDGE('',*,*,#232,.T.);
#180=ORIENTED_EDGE('',*,*,#233,.F.);
#181=ORIENTED_EDGE('',*,*,#232,.F.);
#182=ORIENTED_EDGE('',*,*,#233,.T.);
#183=ORIENTED_EDGE('',*,*,#229,.F.);
#184=ORIENTED_EDGE('',*,*,#234,.F.);
#185=ORIENTED_EDGE('',*,*,#230,.F.);
#186=ORIENTED_EDGE('',*,*,#234,.T.);
#187=ORIENTED_EDGE('',*,*,#235,.F.);
#188=ORIENTED_EDGE('',*,*,#235,.T.);
#189=ORIENTED_EDGE('',*,*,#224,.F.);
#190=ORIENTED_EDGE('',*,*,#236,.F.);
#191=ORIENTED_EDGE('',*,*,#237,.T.);
#192=ORIENTED_EDGE('',*,*,#236,.T.);
#193=ORIENTED_EDGE('',*,*,#238,.F.);
#194=ORIENTED_EDGE('',*,*,#239,.F.);
#195=ORIENTED_EDGE('',*,*,#238,.T.);
#196=ORIENTED_EDGE('',*,*,#239,.T.);
#197=ORIENTED_EDGE('',*,*,#240,.T.);
#198=ORIENTED_EDGE('',*,*,#240,.F.);
#199=ORIENTED_EDGE('',*,*,#241,.T.);
#200=ORIENTED_EDGE('',*,*,#241,.F.);
#201=ORIENTED_EDGE('',*,*,#237,.F.);
#202=VERTEX_POINT('',#465);
#203=VERTEX_POINT('',#467);
#204=VERTEX_POINT('',#470);
#205=VERTEX_POINT('',#472);
#206=VERTEX_POINT('',#475);
#207=VERTEX_POINT('',#478);
#208=VERTEX_POINT('',#482);
#209=VERTEX_POINT('',#485);
#210=VERTEX_POINT('',#487);
#211=VERTEX_POINT('',#490);
#212=VERTEX_POINT('',#493);
#213=VERTEX_POINT('',#497);
#214=VERTEX_POINT('',#500);
#215=VERTEX_POINT('',#502);
#216=VERTEX_POINT('',#506);
#217=VERTEX_POINT('',#509);
#218=VERTEX_POINT('',#512);
#219=VERTEX_POINT('',#513);
#220=VERTEX_POINT('',#516);
#221=VERTEX_POINT('',#519);
#222=VERTEX_POINT('',#522);
#223=EDGE_CURVE('',#202,#202,#242,.T.);
#224=EDGE_CURVE('',#203,#203,#243,.T.);
#225=EDGE_CURVE('',#204,#204,#244,.T.);
#226=EDGE_CURVE('',#205,#205,#245,.T.);
#227=EDGE_CURVE('',#206,#206,#246,.T.);
#228=EDGE_CURVE('',#207,#207,#247,.T.);
#229=EDGE_CURVE('',#208,#208,#248,.T.);
#230=EDGE_CURVE('',#209,#209,#249,.T.);
#231=EDGE_CURVE('',#210,#210,#250,.T.);
#232=EDGE_CURVE('',#211,#211,#251,.T.);
#233=EDGE_CURVE('',#212,#212,#252,.T.);
#234=EDGE_CURVE('',#213,#213,#253,.T.);
#235=EDGE_CURVE('',#214,#214,#254,.T.);
#236=EDGE_CURVE('',#216,#216,#255,.T.);
#237=EDGE_CURVE('',#217,#217,#256,.T.);
#238=EDGE_CURVE('',#218,#218,#257,.T.);
#239=EDGE_CURVE('',#220,#220,#258,.T.);
#240=EDGE_CURVE('',#221,#221,#259,.T.);
#241=EDGE_CURVE('',#222,#222,#260,.T.);
#242=CIRCLE('',#304,8.06294052734387);
#243=CIRCLE('',#305,8.06294052734387);
#244=CIRCLE('',#307,5.85);
#245=CIRCLE('',#308,6.00000000000001);
#246=CIRCLE('',#310,5.84999999999999);
#247=CIRCLE('',#312,6.55);
#248=CIRCLE('',#315,6.);
#249=CIRCLE('',#317,1.55);
#250=CIRCLE('',#318,4.16);
#251=CIRCLE('',#320,5.76);
#252=CIRCLE('',#322,5.76);
#253=CIRCLE('',#325,1.);
#254=CIRCLE('',#327,1.);
#255=CIRCLE('',#331,8.06294052734387);
#256=CIRCLE('',#333,8.06294052734387);
#257=CIRCLE('',#335,1.);
#258=CIRCLE('',#337,1.);
#259=CIRCLE('',#339,1.55);
#260=CIRCLE('',#341,7.37);
#261=CURVE_STYLE('',#265,POSITIVE_LENGTH_MEASURE(0.18),#271);
#262=CURVE_STYLE('',#266,POSITIVE_LENGTH_MEASURE(0.13),#298);
#263=CURVE_STYLE('',#267,POSITIVE_LENGTH_MEASURE(0.18),#297);
#264=CURVE_STYLE('',#268,POSITIVE_LENGTH_MEASURE(0.18),#297);
#265=DRAUGHTING_PRE_DEFINED_CURVE_FONT('continuous');
#266=DRAUGHTING_PRE_DEFINED_CURVE_FONT('continuous');
#267=DRAUGHTING_PRE_DEFINED_CURVE_FONT('continuous');
#268=DRAUGHTING_PRE_DEFINED_CURVE_FONT('continuous');
#269=B_SPLINE_CURVE_WITH_KNOTS('CUTTING PART LINE',3,(#436,#437,#438,#439,
#440,#441,#442,#443,#444,#445,#446,#447,#448,#449,#450,#451,#452,#453,#454,
#455,#456,#457,#458,#459,#460),.UNSPECIFIED.,.T.,.F.,(4,3,3,3,3,3,3,3,4),
(0.,0.142305862504137,0.43745018178054,0.457829924813544,0.506319325013958,
0.525733637721625,0.628453001329708,0.711079728133278,1.),.UNSPECIFIED.);
#270=DRAUGHTING_PRE_DEFINED_COLOUR('white');
#271=DRAUGHTING_PRE_DEFINED_COLOUR('blue');
#272=PRESENTATION_LAYER_ASSIGNMENT('1','Layer 1',(#433,#434,#435,#269,#301,
#302,#303,#38,#39));
#273=STYLED_ITEM('',(#282),#433);
#274=STYLED_ITEM('',(#283),#434);
#275=STYLED_ITEM('',(#284),#435);
#276=STYLED_ITEM('',(#285),#269);
#277=STYLED_ITEM('',(#286),#301);
#278=STYLED_ITEM('',(#287),#302);
#279=STYLED_ITEM('',(#288),#303);
#280=STYLED_ITEM('',(#289),#38);
#281=STYLED_ITEM('',(#290),#39);
#282=PRESENTATION_STYLE_ASSIGNMENT((#291));
#283=PRESENTATION_STYLE_ASSIGNMENT((#292));
#284=PRESENTATION_STYLE_ASSIGNMENT((#293));
#285=PRESENTATION_STYLE_ASSIGNMENT((#261));
#286=PRESENTATION_STYLE_ASSIGNMENT((#262));
#287=PRESENTATION_STYLE_ASSIGNMENT((#263));
#288=PRESENTATION_STYLE_ASSIGNMENT((#264));
#289=PRESENTATION_STYLE_ASSIGNMENT((#28));
#290=PRESENTATION_STYLE_ASSIGNMENT((#29));
#291=POINT_STYLE('',#294,POSITIVE_LENGTH_MEASURE(3.),#297);
#292=POINT_STYLE('',#295,POSITIVE_LENGTH_MEASURE(3.),#270);
#293=POINT_STYLE('',#296,POSITIVE_LENGTH_MEASURE(3.),#297);
#294=PRE_DEFINED_POINT_MARKER_SYMBOL('plus');
#295=PRE_DEFINED_POINT_MARKER_SYMBOL('plus');
#296=PRE_DEFINED_POINT_MARKER_SYMBOL('plus');
#297=COLOUR_RGB('Medium Maroon',0.6,0.4,0.4);
#298=COLOUR_RGB('Silver Gray',0.6,0.6,0.6);
#299=COLOUR_RGB('Pale Sky',0.882337682154574,0.960769054703594,1.);
#300=AXIS2_PLACEMENT_3D('',#432,#344,#345);
#301=AXIS2_PLACEMENT_3D('PCS',#461,#346,#347);
#302=AXIS2_PLACEMENT_3D('MCS',#462,#348,#349);
#303=AXIS2_PLACEMENT_3D('CIP',#463,#350,#351);
#304=AXIS2_PLACEMENT_3D('',#464,#352,#353);
#305=AXIS2_PLACEMENT_3D('',#466,#354,#355);
#306=AXIS2_PLACEMENT_3D('',#468,#356,#357);
#307=AXIS2_PLACEMENT_3D('',#469,#358,#359);
#308=AXIS2_PLACEMENT_3D('',#471,#360,#361);
#309=AXIS2_PLACEMENT_3D('',#473,#362,#363);
#310=AXIS2_PLACEMENT_3D('',#474,#364,#365);
#311=AXIS2_PLACEMENT_3D('',#476,#366,#367);
#312=AXIS2_PLACEMENT_3D('',#477,#368,#369);
#313=AXIS2_PLACEMENT_3D('',#479,#370,#371);
#314=AXIS2_PLACEMENT_3D('',#480,#372,#373);
#315=AXIS2_PLACEMENT_3D('',#481,#374,#375);
#316=AXIS2_PLACEMENT_3D('',#483,#376,#377);
#317=AXIS2_PLACEMENT_3D('',#484,#378,#379);
#318=AXIS2_PLACEMENT_3D('',#486,#380,#381);
#319=AXIS2_PLACEMENT_3D('',#488,#382,#383);
#320=AXIS2_PLACEMENT_3D('',#489,#384,#385);
#321=AXIS2_PLACEMENT_3D('',#491,#386,#387);
#322=AXIS2_PLACEMENT_3D('',#492,#388,#389);
#323=AXIS2_PLACEMENT_3D('',#494,#390,#391);
#324=AXIS2_PLACEMENT_3D('',#495,#392,#393);
#325=AXIS2_PLACEMENT_3D('',#496,#394,#395);
#326=AXIS2_PLACEMENT_3D('',#498,#396,#397);
#327=AXIS2_PLACEMENT_3D('',#499,#398,#399);
#328=AXIS2_PLACEMENT_3D('',#501,#400,#401);
#329=AXIS2_PLACEMENT_3D('',#503,#402,#403);
#330=AXIS2_PLACEMENT_3D('',#504,#404,#405);
#331=AXIS2_PLACEMENT_3D('',#505,#406,#407);
#332=AXIS2_PLACEMENT_3D('',#507,#408,#409);
#333=AXIS2_PLACEMENT_3D('',#508,#410,#411);
#334=AXIS2_PLACEMENT_3D('',#510,#412,#413);
#335=AXIS2_PLACEMENT_3D('',#511,#414,#415);
#336=AXIS2_PLACEMENT_3D('',#514,#416,#417);
#337=AXIS2_PLACEMENT_3D('',#515,#418,#419);
#338=AXIS2_PLACEMENT_3D('',#517,#420,#421);
#339=AXIS2_PLACEMENT_3D('',#518,#422,#423);
#340=AXIS2_PLACEMENT_3D('',#520,#424,#425);
#341=AXIS2_PLACEMENT_3D('',#521,#426,#427);
#342=AXIS2_PLACEMENT_3D('',#523,#428,#429);
#343=AXIS2_PLACEMENT_3D('',#524,#430,#431);
#344=DIRECTION('',(0.,0.,1.));
#345=DIRECTION('',(1.,0.,0.));
#346=DIRECTION('',(0.,0.,1.));
#347=DIRECTION('',(1.,0.,0.));
#348=DIRECTION('',(0.,0.,1.));
#349=DIRECTION('',(1.,0.,0.));
#350=DIRECTION('',(0.,0.,1.));
#351=DIRECTION('',(1.,0.,0.));
#352=DIRECTION('',(0.,0.,-1.));
#353=DIRECTION('',(-1.,0.,0.));
#354=DIRECTION('',(0.,0.,1.));
#355=DIRECTION('',(-1.,0.,0.));
#356=DIRECTION('',(0.,0.,1.));
#357=DIRECTION('',(1.,0.,0.));
#358=DIRECTION('',(1.15211043071682E-16,0.,-1.));
#359=DIRECTION('',(-1.,0.,0.));
#360=DIRECTION('',(0.,0.,1.));
#361=DIRECTION('',(1.,0.,0.));
#362=DIRECTION('',(1.15211043071682E-16,0.,-1.));
#363=DIRECTION('',(-1.,0.,0.));
#364=DIRECTION('',(-1.15211043071682E-16,0.,1.));
#365=DIRECTION('',(-1.,0.,0.));
#366=DIRECTION('',(1.15211043071682E-16,0.,-1.));
#367=DIRECTION('',(-1.,0.,0.));
#368=DIRECTION('',(1.15211043071682E-16,0.,-1.));
#369=DIRECTION('',(-1.,0.,0.));
#370=DIRECTION('',(1.15211043071682E-16,0.,-1.));
#371=DIRECTION('',(-1.,0.,-1.11795235069365E-16));
#372=DIRECTION('',(1.15211043071682E-16,0.,-1.));
#373=DIRECTION('',(-1.,0.,0.));
#374=DIRECTION('',(0.,0.,-1.));
#375=DIRECTION('',(-1.,0.,0.));
#376=DIRECTION('',(0.,0.,1.));
#377=DIRECTION('',(1.,0.,0.));
#378=DIRECTION('',(2.40329839477192E-16,0.,-1.));
#379=DIRECTION('',(-1.,0.,-2.40329839477192E-16));
#380=DIRECTION('',(0.,0.,1.));
#381=DIRECTION('',(1.,0.,0.));
#382=DIRECTION('',(2.40329839477192E-16,0.,-1.));
#383=DIRECTION('',(-1.,0.,-2.40329839477192E-16));
#384=DIRECTION('',(0.,0.,1.));
#385=DIRECTION('',(-1.,0.,0.));
#386=DIRECTION('',(0.,0.,-1.));
#387=DIRECTION('',(-1.,0.,0.));
#388=DIRECTION('',(0.,0.,-1.));
#389=DIRECTION('',(1.,0.,0.));
#390=DIRECTION('',(0.,0.,1.));
#391=DIRECTION('',(1.,0.,0.));
#392=DIRECTION('',(0.,0.,-1.));
#393=DIRECTION('',(-1.,0.,-7.57822010950947E-17));
#394=DIRECTION('',(0.,0.,1.));
#395=DIRECTION('',(-1.,0.,0.));
#396=DIRECTION('',(0.,0.,1.));
#397=DIRECTION('',(1.,0.,6.59875485576661E-17));
#398=DIRECTION('',(0.,0.,1.));
#399=DIRECTION('',(-1.,0.,0.));
#400=DIRECTION('',(0.,0.,-1.));
#401=DIRECTION('',(-1.,0.,0.));
#402=DIRECTION('',(0.,0.,1.));
#403=DIRECTION('',(1.,0.,0.));
#404=DIRECTION('',(0.,0.,-1.));
#405=DIRECTION('',(-1.,0.,0.));
#406=DIRECTION('',(0.,0.,-1.));
#407=DIRECTION('',(1.,0.,0.));
#408=DIRECTION('',(0.,0.,1.));
#409=DIRECTION('',(1.,0.,0.));
#410=DIRECTION('',(0.,0.,1.));
#411=DIRECTION('',(1.,0.,0.));
#412=DIRECTION('',(0.,0.,1.));
#413=DIRECTION('',(1.,0.,0.));
#414=DIRECTION('',(0.,0.,1.));
#415=DIRECTION('',(-1.,0.,0.));
#416=DIRECTION('',(0.,0.,-1.));
#417=DIRECTION('',(-1.,0.,1.60246890531962E-17));
#418=DIRECTION('',(0.,0.,1.));
#419=DIRECTION('',(-1.,0.,0.));
#420=DIRECTION('',(0.,0.,-1.));
#421=DIRECTION('',(-1.,0.,0.));
#422=DIRECTION('',(0.,0.,-1.));
#423=DIRECTION('',(1.,0.,0.));
#424=DIRECTION('',(0.,0.,-1.));
#425=DIRECTION('',(-1.,0.,0.));
#426=DIRECTION('',(0.,0.,-1.));
#427=DIRECTION('',(1.,0.,0.));
#428=DIRECTION('',(0.,0.,1.));
#429=DIRECTION('',(1.,0.,0.));
#430=DIRECTION('',(0.,0.,1.));
#431=DIRECTION('',(1.,0.,1.7708730322447E-16));
#432=CARTESIAN_POINT('',(0.,0.,0.));
#433=CARTESIAN_POINT('',(0.,0.,-42.));
#434=CARTESIAN_POINT('CRP',(-8.06294052734387,0.,-100.));
#435=CARTESIAN_POINT('CIP_DCSYS',(0.,0.,-100.));
#436=CARTESIAN_POINT('',(-8.06294052734387,0.,-79.));
#437=CARTESIAN_POINT('',(-5.37529368489591,0.,-79.));
#438=CARTESIAN_POINT('',(-2.68764684244796,0.,-79.));
#439=CARTESIAN_POINT('',(0.,0.,-79.));
#440=CARTESIAN_POINT('',(0.,0.,-84.5742165769368));
#441=CARTESIAN_POINT('',(0.,0.,-90.1484331538736));
#442=CARTESIAN_POINT('',(0.,0.,-95.7226497308104));
#443=CARTESIAN_POINT('',(-0.333333333333333,0.,-95.9150998205402));
#444=CARTESIAN_POINT('',(-0.666666666666667,0.,-96.1075499102701));
#445=CARTESIAN_POINT('',(-1.,0.,-96.3));
#446=CARTESIAN_POINT('',(-1.,0.,-97.215790685279));
#447=CARTESIAN_POINT('',(-1.,0.,-98.1315813705581));
#448=CARTESIAN_POINT('',(-1.,0.,-99.0473720558371));
#449=CARTESIAN_POINT('',(-1.18333333333333,0.,-99.3649147038914));
#450=CARTESIAN_POINT('',(-1.36666666666667,0.,-99.6824573519457));
#451=CARTESIAN_POINT('',(-1.55,0.,-100.));
#452=CARTESIAN_POINT('',(-3.49,0.,-100.));
#453=CARTESIAN_POINT('',(-5.43,0.,-100.));
#454=CARTESIAN_POINT('',(-7.37,0.,-100.));
#455=CARTESIAN_POINT('',(-7.60098017578129,0.,-98.4566666666667));
#456=CARTESIAN_POINT('',(-7.83196035156258,0.,-96.9133333333333));
#457=CARTESIAN_POINT('',(-8.06294052734387,0.,-95.37));
#458=CARTESIAN_POINT('',(-8.06294052734387,0.,-89.9133333333333));
#459=CARTESIAN_POINT('',(-8.06294052734387,0.,-84.4566666666667));
#460=CARTESIAN_POINT('',(-8.06294052734387,0.,-79.));
#461=CARTESIAN_POINT('',(0.,0.,0.));
#462=CARTESIAN_POINT('',(0.,0.,-42.));
#463=CARTESIAN_POINT('',(0.,0.,-100.));
#464=CARTESIAN_POINT('',(0.,0.,-78.7113248654052));
#465=CARTESIAN_POINT('',(-8.06294052734387,0.,-78.7113248654052));
#466=CARTESIAN_POINT('',(0.,0.,-79.));
#467=CARTESIAN_POINT('',(-8.06294052734387,0.,-79.));
#468=CARTESIAN_POINT('',(0.,0.,20.9080749503476));
#469=CARTESIAN_POINT('',(5.4400265886672E-15,0.,-50.6538348415311));
#470=CARTESIAN_POINT('',(-5.84999999999999,0.,-50.6538348415311));
#471=CARTESIAN_POINT('',(0.,0.,-50.));
#472=CARTESIAN_POINT('',(6.00000000000001,0.,-50.));
#473=CARTESIAN_POINT('',(5.20417042793042E-15,0.,-50.6538348415311));
#474=CARTESIAN_POINT('',(8.43223685736196E-15,0.,-76.6253926793771));
#475=CARTESIAN_POINT('',(-5.84999999999998,0.,-76.6253926793771));
#476=CARTESIAN_POINT('',(5.32907051820075E-15,0.,-49.6907668273182));
#477=CARTESIAN_POINT('',(8.57192282349717E-15,0.,-77.8378282446753));
#478=CARTESIAN_POINT('',(-6.54999999999999,0.,-77.8378282446753));
#479=CARTESIAN_POINT('',(8.52536083478543E-15,0.,-77.4336830562426));
#480=CARTESIAN_POINT('',(8.43223685736196E-15,0.,-76.6253926793771));
#481=CARTESIAN_POINT('',(0.,0.,-14.64));
#482=CARTESIAN_POINT('',(-6.,0.,-14.64));
#483=CARTESIAN_POINT('',(0.,0.,20.9080749503476));
#484=CARTESIAN_POINT('',(-6.72959312954812E-16,0.,-7.58941520739853E-16));
#485=CARTESIAN_POINT('',(-1.55,0.,-1.1314527719295E-15));
#486=CARTESIAN_POINT('',(0.,0.,0.));
#487=CARTESIAN_POINT('',(4.16,0.,0.));
#488=CARTESIAN_POINT('',(6.20000000000001,0.,7.45022502379295E-16));
#489=CARTESIAN_POINT('',(0.,0.,-1.6));
#490=CARTESIAN_POINT('',(-5.76,0.,-1.6));
#491=CARTESIAN_POINT('',(0.,0.,0.));
#492=CARTESIAN_POINT('',(0.,0.,-14.4));
#493=CARTESIAN_POINT('',(5.76,0.,-14.4));
#494=CARTESIAN_POINT('',(0.,0.,20.9080749503476));
#495=CARTESIAN_POINT('',(0.,0.,-15.84));
#496=CARTESIAN_POINT('',(0.,0.,-0.952627944162881));
#497=CARTESIAN_POINT('',(-1.,0.,-0.952627944162881));
#498=CARTESIAN_POINT('',(0.,0.,-0.952627944162881));
#499=CARTESIAN_POINT('',(0.,0.,-3.7));
#500=CARTESIAN_POINT('',(-1.,0.,-3.7));
#501=CARTESIAN_POINT('',(0.,0.,20.9080749503476));
#502=CARTESIAN_POINT('',(0.,0.,-4.27735026918963));
#503=CARTESIAN_POINT('',(0.,0.,-4.27735026918963));
#504=CARTESIAN_POINT('',(0.,0.,-79.));
#505=CARTESIAN_POINT('',(0.,0.,-79.));
#506=CARTESIAN_POINT('',(8.06294052734387,0.,-79.));
#507=CARTESIAN_POINT('',(0.,0.,-79.));
#508=CARTESIAN_POINT('',(0.,0.,-95.37));
#509=CARTESIAN_POINT('',(8.06294052734387,0.,-95.37));
#510=CARTESIAN_POINT('',(0.,0.,20.9080749503476));
#511=CARTESIAN_POINT('',(0.,0.,-96.3));
#512=CARTESIAN_POINT('',(-1.,0.,-96.3));
#513=CARTESIAN_POINT('',(0.,0.,-95.7226497308104));
#514=CARTESIAN_POINT('',(0.,0.,-95.7226497308104));
#515=CARTESIAN_POINT('',(0.,0.,-99.0473720558371));
#516=CARTESIAN_POINT('',(-1.,0.,-99.0473720558371));
#517=CARTESIAN_POINT('',(0.,0.,20.9080749503476));
#518=CARTESIAN_POINT('',(0.,0.,-100.));
#519=CARTESIAN_POINT('',(1.55,0.,-100.));
#520=CARTESIAN_POINT('',(0.,0.,-99.0473720558371));
#521=CARTESIAN_POINT('',(0.,0.,-100.));
#522=CARTESIAN_POINT('',(7.37,0.,-100.));
#523=CARTESIAN_POINT('',(0.,0.,-100.));
#524=CARTESIAN_POINT('',(0.,0.,-102.));
#525=MECHANICAL_DESIGN_GEOMETRIC_PRESENTATION_REPRESENTATION('',(#273,#274,
#275,#276,#277,#278,#279,#280,#281),#526);
#526=(
GEOMETRIC_REPRESENTATION_CONTEXT(3)
GLOBAL_UNCERTAINTY_ASSIGNED_CONTEXT((#527))
GLOBAL_UNIT_ASSIGNED_CONTEXT((#533,#529,#528))
REPRESENTATION_CONTEXT('TOOL','TOP_LEVEL_ASSEMBLY_PART')
);
#527=UNCERTAINTY_MEASURE_WITH_UNIT(LENGTH_MEASURE(2.E-5),#533,
'DISTANCE_ACCURACY_VALUE','Maximum Tolerance applied to model');
#528=(
NAMED_UNIT(*)
SI_UNIT($,.STERADIAN.)
SOLID_ANGLE_UNIT()
);
#529=(
CONVERSION_BASED_UNIT('DEGREE',#531)
NAMED_UNIT(#530)
PLANE_ANGLE_UNIT()
);
#530=DIMENSIONAL_EXPONENTS(0.,0.,0.,0.,0.,0.,0.);
#531=PLANE_ANGLE_MEASURE_WITH_UNIT(PLANE_ANGLE_MEASURE(0.0174532925),#532);
#532=(
NAMED_UNIT(*)
PLANE_ANGLE_UNIT()
SI_UNIT($,.RADIAN.)
);
#533=(
LENGTH_UNIT()
NAMED_UNIT(*)
SI_UNIT(.MILLI.,.METRE.)
);
ENDSEC;
END-ISO-10303-21;
