ISO-10303-21;
HEADER;
/* Generated by software containing ST-Developer
 * from STEP Tools, Inc. (www.steptools.com) 
 */
/* OPTION: using custom schema-name function */

FILE_DESCRIPTION(
/* description */ (''),
/* implementation_level */ '2;1');

FILE_NAME(
/* name */ 'TOOL.STP',
/* time_stamp */ '2023-03-28T10:05:31+02:00',
/* author */ (''),
/* organization */ ('SMS'),
/* preprocessor_version */ 'ST-DEVELOPER v16.7',
/* originating_system */ 'SIEMENS PLM Software NX 12.0',
/* authorisation */ '');

FILE_SCHEMA (('AUTOMOTIVE_DESIGN { 1 0 10303 214 3 1 1 1 }'));
ENDSEC;

DATA;
#10=CONSTRUCTIVE_GEOMETRY_REPRESENTATION_RELATIONSHIP(
'supplemental geometry','',#26,#11);
#11=CONSTRUCTIVE_GEOMETRY_REPRESENTATION('supplemental geometry',(#200,
#201,#202),#353);
#12=GEOMETRICALLY_BOUNDED_WIREFRAME_SHAPE_REPRESENTATION('Tool-None',(#27),
#353);
#13=SHAPE_REPRESENTATION_RELATIONSHIP('None',
'relationship between Tool-None and Tool-None',#26,#15);
#14=SHAPE_REPRESENTATION_RELATIONSHIP('None',
'relationship between Tool-None and Tool-None',#26,#12);
#15=ADVANCED_BREP_SHAPE_REPRESENTATION('Tool-None',(#39,#40),#353);
#16=SHAPE_DEFINITION_REPRESENTATION(#17,#26);
#17=PRODUCT_DEFINITION_SHAPE('','',#18);
#18=PRODUCT_DEFINITION(' ','',#20,#19);
#19=PRODUCT_DEFINITION_CONTEXT('part definition',#25,'design');
#20=PRODUCT_DEFINITION_FORMATION_WITH_SPECIFIED_SOURCE(' ',' ',#22,
 .NOT_KNOWN.);
#21=PRODUCT_RELATED_PRODUCT_CATEGORY('part','',(#22));
#22=PRODUCT('Tool','Tool',' ',(#23));
#23=PRODUCT_CONTEXT(' ',#25,'mechanical');
#24=APPLICATION_PROTOCOL_DEFINITION('international standard',
'automotive_design',2010,#25);
#25=APPLICATION_CONTEXT(
'core data for automotive mechanical design processes');
#26=SHAPE_REPRESENTATION('Tool-None',(#199),#353);
#27=GEOMETRIC_CURVE_SET('None',(#270,#271,#272,#166));
#28=(
BOUNDED_SURFACE()
B_SPLINE_SURFACE(3,3,((#323,#324,#325,#326,#327,#328,#329),(#330,#331,#332,
#333,#334,#335,#336),(#337,#338,#339,#340,#341,#342,#343),(#344,#345,#346,
#347,#348,#349,#350)),.UNSPECIFIED.,.F.,.T.,.F.)
B_SPLINE_SURFACE_WITH_KNOTS((4,4),(1,3,3,3,1),(0.,1.),(-0.5,0.,0.5,1.,1.5),
 .UNSPECIFIED.)
GEOMETRIC_REPRESENTATION_ITEM()
RATIONAL_B_SPLINE_SURFACE(((1.,0.333333333333333,0.333333333333333,1.,0.333333333333333,
0.333333333333333,1.),(0.804737854124365,0.268245951374788,0.268245951374788,
0.804737854124365,0.268245951374788,0.268245951374788,0.804737854124365),
(0.804737854124365,0.268245951374788,0.268245951374788,0.804737854124365,
0.268245951374788,0.268245951374788,0.804737854124365),(1.,0.333333333333333,
0.333333333333333,1.,0.333333333333333,0.333333333333333,1.)))
REPRESENTATION_ITEM('')
SURFACE()
);
#29=SURFACE_STYLE_USAGE(.BOTH.,#31);
#30=SURFACE_STYLE_USAGE(.BOTH.,#32);
#31=SURFACE_SIDE_STYLE('',(#33));
#32=SURFACE_SIDE_STYLE('',(#34));
#33=SURFACE_STYLE_FILL_AREA(#35);
#34=SURFACE_STYLE_FILL_AREA(#36);
#35=FILL_AREA_STYLE('',(#37));
#36=FILL_AREA_STYLE('',(#38));
#37=FILL_AREA_STYLE_COLOUR('',#197);
#38=FILL_AREA_STYLE_COLOUR('',#198);
#39=MANIFOLD_SOLID_BREP('NOCUT',#41);
#40=MANIFOLD_SOLID_BREP('CUT',#42);
#41=CLOSED_SHELL('',(#58,#59,#60,#61,#62,#63,#64));
#42=CLOSED_SHELL('',(#65,#66,#67,#68));
#43=CONICAL_SURFACE('',#210,9.,45.0000000000001);
#44=PLANE('',#209);
#45=PLANE('',#211);
#46=PLANE('',#212);
#47=PLANE('',#213);
#48=PLANE('',#214);
#49=PLANE('',#219);
#50=PLANE('',#220);
#51=FACE_OUTER_BOUND('',#89,.T.);
#52=FACE_OUTER_BOUND('',#92,.T.);
#53=FACE_OUTER_BOUND('',#93,.T.);
#54=FACE_OUTER_BOUND('',#94,.T.);
#55=FACE_OUTER_BOUND('',#95,.T.);
#56=FACE_OUTER_BOUND('',#98,.T.);
#57=FACE_OUTER_BOUND('',#101,.T.);
#58=ADVANCED_FACE('',(#77,#78,#79),#69,.T.);
#59=ADVANCED_FACE('',(#51),#44,.F.);
#60=ADVANCED_FACE('',(#80,#81),#43,.T.);
#61=ADVANCED_FACE('',(#52),#45,.T.);
#62=ADVANCED_FACE('',(#53),#46,.T.);
#63=ADVANCED_FACE('',(#54),#47,.T.);
#64=ADVANCED_FACE('',(#55),#48,.T.);
#65=ADVANCED_FACE('',(#82,#83),#70,.T.);
#66=ADVANCED_FACE('',(#56),#49,.F.);
#67=ADVANCED_FACE('',(#84,#85),#28,.T.);
#68=ADVANCED_FACE('',(#57),#50,.T.);
#69=CYLINDRICAL_SURFACE('',#207,10.);
#70=CYLINDRICAL_SURFACE('',#217,10.);
#71=CIRCLE('',#205,10.);
#72=CIRCLE('',#206,10.);
#73=CIRCLE('',#208,9.);
#74=CIRCLE('',#215,10.);
#75=CIRCLE('',#216,10.);
#76=CIRCLE('',#218,3.65);
#77=FACE_BOUND('',#86,.T.);
#78=FACE_BOUND('',#87,.T.);
#79=FACE_BOUND('',#88,.T.);
#80=FACE_BOUND('',#90,.T.);
#81=FACE_BOUND('',#91,.T.);
#82=FACE_BOUND('',#96,.T.);
#83=FACE_BOUND('',#97,.T.);
#84=FACE_BOUND('',#99,.T.);
#85=FACE_BOUND('',#100,.T.);
#86=EDGE_LOOP('',(#110,#111,#112,#113));
#87=EDGE_LOOP('',(#114));
#88=EDGE_LOOP('',(#115));
#89=EDGE_LOOP('',(#116));
#90=EDGE_LOOP('',(#117));
#91=EDGE_LOOP('',(#118));
#92=EDGE_LOOP('',(#119,#120));
#93=EDGE_LOOP('',(#121,#122,#123,#124));
#94=EDGE_LOOP('',(#125,#126));
#95=EDGE_LOOP('',(#127));
#96=EDGE_LOOP('',(#128));
#97=EDGE_LOOP('',(#129));
#98=EDGE_LOOP('',(#130));
#99=EDGE_LOOP('',(#131));
#100=EDGE_LOOP('',(#132));
#101=EDGE_LOOP('',(#133));
#102=LINE('',#295,#106);
#103=LINE('',#299,#107);
#104=LINE('',#309,#108);
#105=LINE('',#311,#109);
#106=VECTOR('',#231,1.);
#107=VECTOR('',#234,1.);
#108=VECTOR('',#247,1.);
#109=VECTOR('',#250,1.);
#110=ORIENTED_EDGE('',*,*,#144,.F.);
#111=ORIENTED_EDGE('',*,*,#145,.F.);
#112=ORIENTED_EDGE('',*,*,#146,.F.);
#113=ORIENTED_EDGE('',*,*,#147,.F.);
#114=ORIENTED_EDGE('',*,*,#148,.T.);
#115=ORIENTED_EDGE('',*,*,#149,.F.);
#116=ORIENTED_EDGE('',*,*,#150,.T.);
#117=ORIENTED_EDGE('',*,*,#148,.F.);
#118=ORIENTED_EDGE('',*,*,#150,.F.);
#119=ORIENTED_EDGE('',*,*,#144,.T.);
#120=ORIENTED_EDGE('',*,*,#151,.F.);
#121=ORIENTED_EDGE('',*,*,#145,.T.);
#122=ORIENTED_EDGE('',*,*,#151,.T.);
#123=ORIENTED_EDGE('',*,*,#147,.T.);
#124=ORIENTED_EDGE('',*,*,#152,.F.);
#125=ORIENTED_EDGE('',*,*,#146,.T.);
#126=ORIENTED_EDGE('',*,*,#152,.T.);
#127=ORIENTED_EDGE('',*,*,#149,.T.);
#128=ORIENTED_EDGE('',*,*,#153,.T.);
#129=ORIENTED_EDGE('',*,*,#154,.F.);
#130=ORIENTED_EDGE('',*,*,#155,.T.);
#131=ORIENTED_EDGE('',*,*,#155,.F.);
#132=ORIENTED_EDGE('',*,*,#153,.F.);
#133=ORIENTED_EDGE('',*,*,#154,.T.);
#134=VERTEX_POINT('',#293);
#135=VERTEX_POINT('',#294);
#136=VERTEX_POINT('',#296);
#137=VERTEX_POINT('',#298);
#138=VERTEX_POINT('',#301);
#139=VERTEX_POINT('',#303);
#140=VERTEX_POINT('',#306);
#141=VERTEX_POINT('',#316);
#142=VERTEX_POINT('',#318);
#143=VERTEX_POINT('',#321);
#144=EDGE_CURVE('',#134,#135,#156,.T.);
#145=EDGE_CURVE('',#136,#134,#102,.T.);
#146=EDGE_CURVE('',#137,#136,#157,.T.);
#147=EDGE_CURVE('',#135,#137,#103,.T.);
#148=EDGE_CURVE('',#138,#138,#71,.T.);
#149=EDGE_CURVE('',#139,#139,#72,.T.);
#150=EDGE_CURVE('',#140,#140,#73,.T.);
#151=EDGE_CURVE('',#134,#135,#104,.T.);
#152=EDGE_CURVE('',#136,#137,#105,.T.);
#153=EDGE_CURVE('',#141,#141,#74,.T.);
#154=EDGE_CURVE('',#142,#142,#75,.T.);
#155=EDGE_CURVE('',#143,#143,#76,.T.);
#156=ELLIPSE('',#203,14.1421356237309,10.);
#157=ELLIPSE('',#204,14.142135623731,10.);
#158=CURVE_STYLE('',#162,POSITIVE_LENGTH_MEASURE(0.18),#169);
#159=CURVE_STYLE('',#163,POSITIVE_LENGTH_MEASURE(0.13),#196);
#160=CURVE_STYLE('',#164,POSITIVE_LENGTH_MEASURE(0.18),#195);
#161=CURVE_STYLE('',#165,POSITIVE_LENGTH_MEASURE(0.18),#195);
#162=DRAUGHTING_PRE_DEFINED_CURVE_FONT('continuous');
#163=DRAUGHTING_PRE_DEFINED_CURVE_FONT('continuous');
#164=DRAUGHTING_PRE_DEFINED_CURVE_FONT('continuous');
#165=DRAUGHTING_PRE_DEFINED_CURVE_FONT('continuous');
#166=TRIMMED_CURVE('CUTTING PART LINE',#167,(PARAMETER_VALUE(0.)),(
PARAMETER_VALUE(1.)),.T.,.PARAMETER.);
#167=(
BOUNDED_CURVE()
B_SPLINE_CURVE(3,(#273,#274,#275,#276,#277,#278,#279,#280,#281,#282,#283,
#284,#285,#286,#287,#288),.UNSPECIFIED.,.T.,.F.)
B_SPLINE_CURVE_WITH_KNOTS((1,3,3,3,3,3,3,1),(-0.0984902526613814,0.,0.352013389842516,
0.450754873669309,0.865469105741839,0.901509747338619,1.,1.35201338984252),
 .UNSPECIFIED.)
CURVE()
GEOMETRIC_REPRESENTATION_ITEM()
RATIONAL_B_SPLINE_CURVE((1.,1.,1.,1.,1.,1.,1.,1.,1.,1.,1.,1.,1.,0.804737854124365,
0.804737854124365,1.))
REPRESENTATION_ITEM('CUTTING PART LINE')
);
#168=DRAUGHTING_PRE_DEFINED_COLOUR('white');
#169=DRAUGHTING_PRE_DEFINED_COLOUR('blue');
#170=PRESENTATION_LAYER_ASSIGNMENT('1','Layer 1',(#270,#271,#272,#166,#200,
#201,#202,#39,#40));
#171=STYLED_ITEM('',(#180),#270);
#172=STYLED_ITEM('',(#181),#271);
#173=STYLED_ITEM('',(#182),#272);
#174=STYLED_ITEM('',(#183),#166);
#175=STYLED_ITEM('',(#184),#200);
#176=STYLED_ITEM('',(#185),#201);
#177=STYLED_ITEM('',(#186),#202);
#178=STYLED_ITEM('',(#187),#39);
#179=STYLED_ITEM('',(#188),#40);
#180=PRESENTATION_STYLE_ASSIGNMENT((#189));
#181=PRESENTATION_STYLE_ASSIGNMENT((#190));
#182=PRESENTATION_STYLE_ASSIGNMENT((#191));
#183=PRESENTATION_STYLE_ASSIGNMENT((#158));
#184=PRESENTATION_STYLE_ASSIGNMENT((#159));
#185=PRESENTATION_STYLE_ASSIGNMENT((#160));
#186=PRESENTATION_STYLE_ASSIGNMENT((#161));
#187=PRESENTATION_STYLE_ASSIGNMENT((#29));
#188=PRESENTATION_STYLE_ASSIGNMENT((#30));
#189=POINT_STYLE('',#192,POSITIVE_LENGTH_MEASURE(3.),#195);
#190=POINT_STYLE('',#193,POSITIVE_LENGTH_MEASURE(3.),#168);
#191=POINT_STYLE('',#194,POSITIVE_LENGTH_MEASURE(3.),#195);
#192=PRE_DEFINED_POINT_MARKER_SYMBOL('plus');
#193=PRE_DEFINED_POINT_MARKER_SYMBOL('plus');
#194=PRE_DEFINED_POINT_MARKER_SYMBOL('plus');
#195=COLOUR_RGB('Medium Maroon',0.6,0.4,0.4);
#196=COLOUR_RGB('Silver Gray',0.6,0.6,0.6);
#197=COLOUR_RGB('TLS_NOCUT',0.498023956664378,0.498023956664378,0.498023956664378);
#198=COLOUR_RGB('TLS_CUT',0.8,0.8,0.8);
#199=AXIS2_PLACEMENT_3D('',#269,#221,#222);
#200=AXIS2_PLACEMENT_3D('PCS',#289,#223,#224);
#201=AXIS2_PLACEMENT_3D('MCS',#290,#225,#226);
#202=AXIS2_PLACEMENT_3D('CIP',#291,#227,#228);
#203=AXIS2_PLACEMENT_3D('',#292,#229,#230);
#204=AXIS2_PLACEMENT_3D('',#297,#232,#233);
#205=AXIS2_PLACEMENT_3D('',#300,#235,#236);
#206=AXIS2_PLACEMENT_3D('',#302,#237,#238);
#207=AXIS2_PLACEMENT_3D('',#304,#239,#240);
#208=AXIS2_PLACEMENT_3D('',#305,#241,#242);
#209=AXIS2_PLACEMENT_3D('',#307,#243,#244);
#210=AXIS2_PLACEMENT_3D('',#308,#245,#246);
#211=AXIS2_PLACEMENT_3D('',#310,#248,#249);
#212=AXIS2_PLACEMENT_3D('',#312,#251,#252);
#213=AXIS2_PLACEMENT_3D('',#313,#253,#254);
#214=AXIS2_PLACEMENT_3D('',#314,#255,#256);
#215=AXIS2_PLACEMENT_3D('',#315,#257,#258);
#216=AXIS2_PLACEMENT_3D('',#317,#259,#260);
#217=AXIS2_PLACEMENT_3D('',#319,#261,#262);
#218=AXIS2_PLACEMENT_3D('',#320,#263,#264);
#219=AXIS2_PLACEMENT_3D('',#322,#265,#266);
#220=AXIS2_PLACEMENT_3D('',#351,#267,#268);
#221=DIRECTION('',(0.,0.,1.));
#222=DIRECTION('',(1.,0.,0.));
#223=DIRECTION('',(0.,0.,1.));
#224=DIRECTION('',(1.,0.,0.));
#225=DIRECTION('',(0.,0.,1.));
#226=DIRECTION('',(1.,0.,0.));
#227=DIRECTION('',(0.,0.,1.));
#228=DIRECTION('',(1.,0.,0.));
#229=DIRECTION('',(0.,0.707106781186547,-0.707106781186549));
#230=DIRECTION('',(0.,0.707106781186549,0.707106781186547));
#231=DIRECTION('',(0.,0.,1.));
#232=DIRECTION('',(0.,0.707106781186549,0.707106781186546));
#233=DIRECTION('',(0.,-0.707106781186546,0.707106781186549));
#234=DIRECTION('',(0.,0.,-1.));
#235=DIRECTION('',(0.,0.,-1.));
#236=DIRECTION('',(-1.,0.,0.));
#237=DIRECTION('',(0.,0.,-1.));
#238=DIRECTION('',(-1.,0.,0.));
#239=DIRECTION('',(0.,0.,1.));
#240=DIRECTION('',(1.,0.,0.));
#241=DIRECTION('',(0.,0.,1.));
#242=DIRECTION('',(-1.,0.,0.));
#243=DIRECTION('',(0.,0.,-1.));
#244=DIRECTION('',(-1.,0.,0.));
#245=DIRECTION('',(0.,0.,-1.));
#246=DIRECTION('',(-1.,0.,0.));
#247=DIRECTION('',(1.,0.,0.));
#248=DIRECTION('',(0.,0.707106781186547,-0.707106781186549));
#249=DIRECTION('',(0.,-0.707106781186549,-0.707106781186547));
#250=DIRECTION('',(1.,0.,0.));
#251=DIRECTION('',(0.,1.,-1.5770213417971E-16));
#252=DIRECTION('',(0.,-1.57859836313889E-16,-1.));
#253=DIRECTION('',(0.,0.707106781186549,0.707106781186546));
#254=DIRECTION('',(0.,0.707106781186546,-0.707106781186549));
#255=DIRECTION('',(0.,0.,-1.));
#256=DIRECTION('',(-1.,0.,0.));
#257=DIRECTION('',(0.,0.,1.));
#258=DIRECTION('',(1.,0.,0.));
#259=DIRECTION('',(0.,0.,1.));
#260=DIRECTION('',(1.,0.,0.));
#261=DIRECTION('',(0.,0.,1.));
#262=DIRECTION('',(1.,0.,0.));
#263=DIRECTION('',(0.,0.,-1.));
#264=DIRECTION('',(1.,0.,0.));
#265=DIRECTION('',(0.,0.,1.));
#266=DIRECTION('',(1.,0.,0.));
#267=DIRECTION('',(0.,0.,1.));
#268=DIRECTION('',(1.,0.,0.));
#269=CARTESIAN_POINT('',(0.,0.,0.));
#270=CARTESIAN_POINT('',(0.,0.,-50.));
#271=CARTESIAN_POINT('CRP',(-10.,0.,-109.6));
#272=CARTESIAN_POINT('CIP_DCSYS',(0.,0.,-109.6));
#273=CARTESIAN_POINT('',(-10.,0.,-103.25));
#274=CARTESIAN_POINT('',(-10.,0.,-91.3666666666667));
#275=CARTESIAN_POINT('',(-10.,0.,-79.4833333333334));
#276=CARTESIAN_POINT('',(-10.,0.,-67.6));
#277=CARTESIAN_POINT('',(-6.66666666666667,0.,-67.6));
#278=CARTESIAN_POINT('',(-3.33333333333333,0.,-67.6));
#279=CARTESIAN_POINT('',(0.,0.,-67.6));
#280=CARTESIAN_POINT('',(0.,0.,-81.6));
#281=CARTESIAN_POINT('',(0.,0.,-95.6));
#282=CARTESIAN_POINT('',(0.,0.,-109.6));
#283=CARTESIAN_POINT('',(-1.21666666666667,0.,-109.6));
#284=CARTESIAN_POINT('',(-2.43333333333333,0.,-109.6));
#285=CARTESIAN_POINT('',(-3.65,0.,-109.6));
#286=CARTESIAN_POINT('',(-7.36974387893083,0.,-109.6));
#287=CARTESIAN_POINT('',(-9.99999999999999,0.,-106.969743878931));
#288=CARTESIAN_POINT('',(-9.99999999999999,0.,-103.25));
#289=CARTESIAN_POINT('',(0.,0.,0.));
#290=CARTESIAN_POINT('',(0.,0.,-50.));
#291=CARTESIAN_POINT('',(0.,0.,-109.6));
#292=CARTESIAN_POINT('',(0.,0.,-27.7));
#293=CARTESIAN_POINT('',(-5.72363520850168,8.2,-19.5));
#294=CARTESIAN_POINT('',(5.72363520850168,8.2,-19.5));
#295=CARTESIAN_POINT('',(-5.72363520850168,8.2,-1.29315750027362E-15));
#296=CARTESIAN_POINT('',(-5.72363520850167,8.19999999999999,-30.5));
#297=CARTESIAN_POINT('',(0.,0.,-22.2999999999999));
#298=CARTESIAN_POINT('',(5.72363520850167,8.19999999999999,-30.5));
#299=CARTESIAN_POINT('',(5.72363520850168,8.2,-1.29315750027362E-15));
#300=CARTESIAN_POINT('',(0.,0.,-0.999999999999997));
#301=CARTESIAN_POINT('',(-10.,0.,-0.999999999999997));
#302=CARTESIAN_POINT('',(0.,0.,-67.6));
#303=CARTESIAN_POINT('',(-10.,0.,-67.6));
#304=CARTESIAN_POINT('',(0.,0.,0.));
#305=CARTESIAN_POINT('',(0.,0.,0.));
#306=CARTESIAN_POINT('',(-9.,0.,0.));
#307=CARTESIAN_POINT('',(0.,10.,0.));
#308=CARTESIAN_POINT('',(0.,0.,0.));
#309=CARTESIAN_POINT('',(10.,8.2,-19.5));
#310=CARTESIAN_POINT('',(10.,10.,-17.7));
#311=CARTESIAN_POINT('',(10.,8.19999999999999,-30.5));
#312=CARTESIAN_POINT('',(10.,8.2,-19.5));
#313=CARTESIAN_POINT('',(10.,10.,-32.3));
#314=CARTESIAN_POINT('',(0.,0.,-67.6));
#315=CARTESIAN_POINT('',(0.,0.,-103.25));
#316=CARTESIAN_POINT('',(10.,0.,-103.25));
#317=CARTESIAN_POINT('',(0.,0.,-67.6));
#318=CARTESIAN_POINT('',(10.,0.,-67.6));
#319=CARTESIAN_POINT('',(0.,0.,0.));
#320=CARTESIAN_POINT('',(0.,0.,-109.6));
#321=CARTESIAN_POINT('',(3.65,0.,-109.6));
#322=CARTESIAN_POINT('',(0.,0.,-109.6));
#323=CARTESIAN_POINT('',(10.,0.,-103.25));
#324=CARTESIAN_POINT('',(10.,20.,-103.25));
#325=CARTESIAN_POINT('',(-10.,20.,-103.25));
#326=CARTESIAN_POINT('',(-10.,0.,-103.25));
#327=CARTESIAN_POINT('',(-10.,-20.,-103.25));
#328=CARTESIAN_POINT('',(10.,-20.,-103.25));
#329=CARTESIAN_POINT('',(10.,0.,-103.25));
#330=CARTESIAN_POINT('',(10.,0.,-106.969743878931));
#331=CARTESIAN_POINT('',(10.,20.,-106.969743878931));
#332=CARTESIAN_POINT('',(-10.,20.,-106.969743878931));
#333=CARTESIAN_POINT('',(-10.,0.,-106.969743878931));
#334=CARTESIAN_POINT('',(-10.,-20.,-106.969743878931));
#335=CARTESIAN_POINT('',(10.,-20.,-106.969743878931));
#336=CARTESIAN_POINT('',(10.,0.,-106.969743878931));
#337=CARTESIAN_POINT('',(7.36974387893085,0.,-109.6));
#338=CARTESIAN_POINT('',(7.36974387893085,14.7394877578617,-109.6));
#339=CARTESIAN_POINT('',(-7.36974387893085,14.7394877578617,-109.6));
#340=CARTESIAN_POINT('',(-7.36974387893085,0.,-109.6));
#341=CARTESIAN_POINT('',(-7.36974387893085,-14.7394877578617,-109.6));
#342=CARTESIAN_POINT('',(7.36974387893085,-14.7394877578617,-109.6));
#343=CARTESIAN_POINT('',(7.36974387893085,0.,-109.6));
#344=CARTESIAN_POINT('',(3.65,0.,-109.6));
#345=CARTESIAN_POINT('',(3.65,7.30000000000001,-109.6));
#346=CARTESIAN_POINT('',(-3.65,7.30000000000001,-109.6));
#347=CARTESIAN_POINT('',(-3.65,0.,-109.6));
#348=CARTESIAN_POINT('',(-3.65,-7.30000000000001,-109.6));
#349=CARTESIAN_POINT('',(3.65,-7.30000000000001,-109.6));
#350=CARTESIAN_POINT('',(3.65,0.,-109.6));
#351=CARTESIAN_POINT('',(0.,0.,-67.6));
#352=MECHANICAL_DESIGN_GEOMETRIC_PRESENTATION_REPRESENTATION('',(#171,#172,
#173,#174,#175,#176,#177,#178,#179),#353);
#353=(
GEOMETRIC_REPRESENTATION_CONTEXT(3)
GLOBAL_UNCERTAINTY_ASSIGNED_CONTEXT((#354))
GLOBAL_UNIT_ASSIGNED_CONTEXT((#360,#356,#355))
REPRESENTATION_CONTEXT('TOOL','TOP_LEVEL_ASSEMBLY_PART')
);
#354=UNCERTAINTY_MEASURE_WITH_UNIT(LENGTH_MEASURE(0.0254),#360,
'DISTANCE_ACCURACY_VALUE','Maximum Tolerance applied to model');
#355=(
NAMED_UNIT(*)
SI_UNIT($,.STERADIAN.)
SOLID_ANGLE_UNIT()
);
#356=(
CONVERSION_BASED_UNIT('DEGREE',#358)
NAMED_UNIT(#357)
PLANE_ANGLE_UNIT()
);
#357=DIMENSIONAL_EXPONENTS(0.,0.,0.,0.,0.,0.,0.);
#358=PLANE_ANGLE_MEASURE_WITH_UNIT(PLANE_ANGLE_MEASURE(0.0174532925),#359);
#359=(
NAMED_UNIT(*)
PLANE_ANGLE_UNIT()
SI_UNIT($,.RADIAN.)
);
#360=(
LENGTH_UNIT()
NAMED_UNIT(*)
SI_UNIT(.MILLI.,.METRE.)
);
ENDSEC;
END-ISO-10303-21;
