ISO-10303-21;
HEADER;
/* Generated by software containing ST-Developer
 * from STEP Tools, Inc. (www.steptools.com) 
 */
/* OPTION: using custom schema-name function */

FILE_DESCRIPTION(
/* description */ (''),
/* implementation_level */ '2;1');

FILE_NAME(
/* name */ 'TOOL.STP',
/* time_stamp */ '2023-03-28T10:03:38+02:00',
/* author */ (''),
/* organization */ ('SMS'),
/* preprocessor_version */ 'ST-DEVELOPER v16.7',
/* originating_system */ 'SIEMENS PLM Software NX 12.0',
/* authorisation */ '');

FILE_SCHEMA (('AUTOMOTIVE_DESIGN { 1 0 10303 214 3 1 1 1 }'));
ENDSEC;

DATA;
#10=CONSTRUCTIVE_GEOMETRY_REPRESENTATION_RELATIONSHIP(
'supplemental geometry','',#26,#11);
#11=CONSTRUCTIVE_GEOMETRY_REPRESENTATION('supplemental geometry',(#200,
#201,#202),#329);
#12=GEOMETRICALLY_BOUNDED_WIREFRAME_SHAPE_REPRESENTATION('Tool-None',(#27),
#329);
#13=SHAPE_REPRESENTATION_RELATIONSHIP('None',
'relationship between Tool-None and Tool-None',#26,#15);
#14=SHAPE_REPRESENTATION_RELATIONSHIP('None',
'relationship between Tool-None and Tool-None',#26,#12);
#15=ADVANCED_BREP_SHAPE_REPRESENTATION('Tool-None',(#39,#40),#329);
#16=SHAPE_DEFINITION_REPRESENTATION(#17,#26);
#17=PRODUCT_DEFINITION_SHAPE('','',#18);
#18=PRODUCT_DEFINITION(' ','',#20,#19);
#19=PRODUCT_DEFINITION_CONTEXT('part definition',#25,'design');
#20=PRODUCT_DEFINITION_FORMATION_WITH_SPECIFIED_SOURCE(' ',' ',#22,
 .NOT_KNOWN.);
#21=PRODUCT_RELATED_PRODUCT_CATEGORY('part','',(#22));
#22=PRODUCT('Tool','Tool',' ',(#23));
#23=PRODUCT_CONTEXT(' ',#25,'mechanical');
#24=APPLICATION_PROTOCOL_DEFINITION('international standard',
'automotive_design',2010,#25);
#25=APPLICATION_CONTEXT(
'core data for automotive mechanical design processes');
#26=SHAPE_REPRESENTATION('Tool-None',(#199),#329);
#27=GEOMETRIC_CURVE_SET('None',(#273,#274,#275,#166));
#28=TOROIDAL_SURFACE('',#220,3.5,1.5);
#29=SURFACE_STYLE_USAGE(.BOTH.,#31);
#30=SURFACE_STYLE_USAGE(.BOTH.,#32);
#31=SURFACE_SIDE_STYLE('',(#33));
#32=SURFACE_SIDE_STYLE('',(#34));
#33=SURFACE_STYLE_FILL_AREA(#35);
#34=SURFACE_STYLE_FILL_AREA(#36);
#35=FILL_AREA_STYLE('',(#37));
#36=FILL_AREA_STYLE('',(#38));
#37=FILL_AREA_STYLE_COLOUR('',#197);
#38=FILL_AREA_STYLE_COLOUR('',#198);
#39=MANIFOLD_SOLID_BREP('NOCUT',#41);
#40=MANIFOLD_SOLID_BREP('CUT',#42);
#41=CLOSED_SHELL('',(#58,#59,#60,#61,#62,#63,#64));
#42=CLOSED_SHELL('',(#65,#66,#67,#68));
#43=CONICAL_SURFACE('',#210,4.4,45.);
#44=PLANE('',#209);
#45=PLANE('',#211);
#46=PLANE('',#212);
#47=PLANE('',#213);
#48=PLANE('',#214);
#49=PLANE('',#219);
#50=PLANE('',#221);
#51=FACE_OUTER_BOUND('',#89,.T.);
#52=FACE_OUTER_BOUND('',#92,.T.);
#53=FACE_OUTER_BOUND('',#93,.T.);
#54=FACE_OUTER_BOUND('',#94,.T.);
#55=FACE_OUTER_BOUND('',#95,.T.);
#56=FACE_OUTER_BOUND('',#98,.T.);
#57=FACE_OUTER_BOUND('',#101,.T.);
#58=ADVANCED_FACE('',(#77,#78,#79),#69,.T.);
#59=ADVANCED_FACE('',(#51),#44,.F.);
#60=ADVANCED_FACE('',(#80,#81),#43,.T.);
#61=ADVANCED_FACE('',(#52),#45,.T.);
#62=ADVANCED_FACE('',(#53),#46,.T.);
#63=ADVANCED_FACE('',(#54),#47,.T.);
#64=ADVANCED_FACE('',(#55),#48,.T.);
#65=ADVANCED_FACE('',(#82,#83),#70,.T.);
#66=ADVANCED_FACE('',(#56),#49,.F.);
#67=ADVANCED_FACE('',(#84,#85),#28,.T.);
#68=ADVANCED_FACE('',(#57),#50,.T.);
#69=CYLINDRICAL_SURFACE('',#207,5.);
#70=CYLINDRICAL_SURFACE('',#217,5.);
#71=CIRCLE('',#205,5.);
#72=CIRCLE('',#206,5.);
#73=CIRCLE('',#208,4.4);
#74=CIRCLE('',#215,5.);
#75=CIRCLE('',#216,5.);
#76=CIRCLE('',#218,3.5);
#77=FACE_BOUND('',#86,.T.);
#78=FACE_BOUND('',#87,.T.);
#79=FACE_BOUND('',#88,.T.);
#80=FACE_BOUND('',#90,.T.);
#81=FACE_BOUND('',#91,.T.);
#82=FACE_BOUND('',#96,.T.);
#83=FACE_BOUND('',#97,.T.);
#84=FACE_BOUND('',#99,.T.);
#85=FACE_BOUND('',#100,.T.);
#86=EDGE_LOOP('',(#110,#111,#112,#113));
#87=EDGE_LOOP('',(#114));
#88=EDGE_LOOP('',(#115));
#89=EDGE_LOOP('',(#116));
#90=EDGE_LOOP('',(#117));
#91=EDGE_LOOP('',(#118));
#92=EDGE_LOOP('',(#119,#120));
#93=EDGE_LOOP('',(#121,#122,#123,#124));
#94=EDGE_LOOP('',(#125,#126));
#95=EDGE_LOOP('',(#127));
#96=EDGE_LOOP('',(#128));
#97=EDGE_LOOP('',(#129));
#98=EDGE_LOOP('',(#130));
#99=EDGE_LOOP('',(#131));
#100=EDGE_LOOP('',(#132));
#101=EDGE_LOOP('',(#133));
#102=LINE('',#298,#106);
#103=LINE('',#302,#107);
#104=LINE('',#312,#108);
#105=LINE('',#314,#109);
#106=VECTOR('',#232,1.);
#107=VECTOR('',#235,1.);
#108=VECTOR('',#248,1.);
#109=VECTOR('',#251,1.);
#110=ORIENTED_EDGE('',*,*,#144,.F.);
#111=ORIENTED_EDGE('',*,*,#145,.F.);
#112=ORIENTED_EDGE('',*,*,#146,.F.);
#113=ORIENTED_EDGE('',*,*,#147,.F.);
#114=ORIENTED_EDGE('',*,*,#148,.T.);
#115=ORIENTED_EDGE('',*,*,#149,.F.);
#116=ORIENTED_EDGE('',*,*,#150,.T.);
#117=ORIENTED_EDGE('',*,*,#148,.F.);
#118=ORIENTED_EDGE('',*,*,#150,.F.);
#119=ORIENTED_EDGE('',*,*,#144,.T.);
#120=ORIENTED_EDGE('',*,*,#151,.F.);
#121=ORIENTED_EDGE('',*,*,#145,.T.);
#122=ORIENTED_EDGE('',*,*,#151,.T.);
#123=ORIENTED_EDGE('',*,*,#147,.T.);
#124=ORIENTED_EDGE('',*,*,#152,.F.);
#125=ORIENTED_EDGE('',*,*,#146,.T.);
#126=ORIENTED_EDGE('',*,*,#152,.T.);
#127=ORIENTED_EDGE('',*,*,#149,.T.);
#128=ORIENTED_EDGE('',*,*,#153,.T.);
#129=ORIENTED_EDGE('',*,*,#154,.F.);
#130=ORIENTED_EDGE('',*,*,#155,.T.);
#131=ORIENTED_EDGE('',*,*,#155,.F.);
#132=ORIENTED_EDGE('',*,*,#153,.F.);
#133=ORIENTED_EDGE('',*,*,#154,.T.);
#134=VERTEX_POINT('',#296);
#135=VERTEX_POINT('',#297);
#136=VERTEX_POINT('',#299);
#137=VERTEX_POINT('',#301);
#138=VERTEX_POINT('',#304);
#139=VERTEX_POINT('',#306);
#140=VERTEX_POINT('',#309);
#141=VERTEX_POINT('',#319);
#142=VERTEX_POINT('',#321);
#143=VERTEX_POINT('',#324);
#144=EDGE_CURVE('',#134,#135,#156,.T.);
#145=EDGE_CURVE('',#136,#134,#102,.T.);
#146=EDGE_CURVE('',#137,#136,#157,.T.);
#147=EDGE_CURVE('',#135,#137,#103,.T.);
#148=EDGE_CURVE('',#138,#138,#71,.T.);
#149=EDGE_CURVE('',#139,#139,#72,.T.);
#150=EDGE_CURVE('',#140,#140,#73,.T.);
#151=EDGE_CURVE('',#134,#135,#104,.T.);
#152=EDGE_CURVE('',#136,#137,#105,.T.);
#153=EDGE_CURVE('',#141,#141,#74,.T.);
#154=EDGE_CURVE('',#142,#142,#75,.T.);
#155=EDGE_CURVE('',#143,#143,#76,.T.);
#156=ELLIPSE('',#203,7.07106781186548,5.);
#157=ELLIPSE('',#204,7.07106781186547,5.);
#158=CURVE_STYLE('',#162,POSITIVE_LENGTH_MEASURE(0.18),#169);
#159=CURVE_STYLE('',#163,POSITIVE_LENGTH_MEASURE(0.13),#196);
#160=CURVE_STYLE('',#164,POSITIVE_LENGTH_MEASURE(0.18),#195);
#161=CURVE_STYLE('',#165,POSITIVE_LENGTH_MEASURE(0.18),#195);
#162=DRAUGHTING_PRE_DEFINED_CURVE_FONT('continuous');
#163=DRAUGHTING_PRE_DEFINED_CURVE_FONT('continuous');
#164=DRAUGHTING_PRE_DEFINED_CURVE_FONT('continuous');
#165=DRAUGHTING_PRE_DEFINED_CURVE_FONT('continuous');
#166=TRIMMED_CURVE('CUTTING PART LINE',#167,(PARAMETER_VALUE(0.)),(
PARAMETER_VALUE(1.)),.T.,.PARAMETER.);
#167=(
BOUNDED_CURVE()
B_SPLINE_CURVE(3,(#276,#277,#278,#279,#280,#281,#282,#283,#284,#285,#286,
#287,#288,#289,#290,#291),.UNSPECIFIED.,.T.,.F.)
B_SPLINE_CURVE_WITH_KNOTS((1,3,3,3,3,3,3,1),(-0.0441597177726308,0.,0.384210309521645,
0.477920141112747,0.890243400113597,0.955840282227369,1.,1.38421030952165),
 .UNSPECIFIED.)
CURVE()
GEOMETRIC_REPRESENTATION_ITEM()
RATIONAL_B_SPLINE_CURVE((1.,1.,1.,1.,1.,1.,1.,1.,1.,1.,1.,1.,1.,0.804737854124365,
0.804737854124365,1.))
REPRESENTATION_ITEM('CUTTING PART LINE')
);
#168=DRAUGHTING_PRE_DEFINED_COLOUR('white');
#169=DRAUGHTING_PRE_DEFINED_COLOUR('blue');
#170=PRESENTATION_LAYER_ASSIGNMENT('1','Layer 1',(#273,#274,#275,#166,#200,
#201,#202,#39,#40));
#171=STYLED_ITEM('',(#180),#273);
#172=STYLED_ITEM('',(#181),#274);
#173=STYLED_ITEM('',(#182),#275);
#174=STYLED_ITEM('',(#183),#166);
#175=STYLED_ITEM('',(#184),#200);
#176=STYLED_ITEM('',(#185),#201);
#177=STYLED_ITEM('',(#186),#202);
#178=STYLED_ITEM('',(#187),#39);
#179=STYLED_ITEM('',(#188),#40);
#180=PRESENTATION_STYLE_ASSIGNMENT((#189));
#181=PRESENTATION_STYLE_ASSIGNMENT((#190));
#182=PRESENTATION_STYLE_ASSIGNMENT((#191));
#183=PRESENTATION_STYLE_ASSIGNMENT((#158));
#184=PRESENTATION_STYLE_ASSIGNMENT((#159));
#185=PRESENTATION_STYLE_ASSIGNMENT((#160));
#186=PRESENTATION_STYLE_ASSIGNMENT((#161));
#187=PRESENTATION_STYLE_ASSIGNMENT((#29));
#188=PRESENTATION_STYLE_ASSIGNMENT((#30));
#189=POINT_STYLE('',#192,POSITIVE_LENGTH_MEASURE(3.),#195);
#190=POINT_STYLE('',#193,POSITIVE_LENGTH_MEASURE(3.),#168);
#191=POINT_STYLE('',#194,POSITIVE_LENGTH_MEASURE(3.),#195);
#192=PRE_DEFINED_POINT_MARKER_SYMBOL('plus');
#193=PRE_DEFINED_POINT_MARKER_SYMBOL('plus');
#194=PRE_DEFINED_POINT_MARKER_SYMBOL('plus');
#195=COLOUR_RGB('Medium Maroon',0.6,0.4,0.4);
#196=COLOUR_RGB('Silver Gray',0.6,0.6,0.6);
#197=COLOUR_RGB('TLS_NOCUT',0.498023956664378,0.498023956664378,0.498023956664378);
#198=COLOUR_RGB('TLS_CUT',0.8,0.8,0.8);
#199=AXIS2_PLACEMENT_3D('',#272,#222,#223);
#200=AXIS2_PLACEMENT_3D('PCS',#292,#224,#225);
#201=AXIS2_PLACEMENT_3D('MCS',#293,#226,#227);
#202=AXIS2_PLACEMENT_3D('CIP',#294,#228,#229);
#203=AXIS2_PLACEMENT_3D('',#295,#230,#231);
#204=AXIS2_PLACEMENT_3D('',#300,#233,#234);
#205=AXIS2_PLACEMENT_3D('',#303,#236,#237);
#206=AXIS2_PLACEMENT_3D('',#305,#238,#239);
#207=AXIS2_PLACEMENT_3D('',#307,#240,#241);
#208=AXIS2_PLACEMENT_3D('',#308,#242,#243);
#209=AXIS2_PLACEMENT_3D('',#310,#244,#245);
#210=AXIS2_PLACEMENT_3D('',#311,#246,#247);
#211=AXIS2_PLACEMENT_3D('',#313,#249,#250);
#212=AXIS2_PLACEMENT_3D('',#315,#252,#253);
#213=AXIS2_PLACEMENT_3D('',#316,#254,#255);
#214=AXIS2_PLACEMENT_3D('',#317,#256,#257);
#215=AXIS2_PLACEMENT_3D('',#318,#258,#259);
#216=AXIS2_PLACEMENT_3D('',#320,#260,#261);
#217=AXIS2_PLACEMENT_3D('',#322,#262,#263);
#218=AXIS2_PLACEMENT_3D('',#323,#264,#265);
#219=AXIS2_PLACEMENT_3D('',#325,#266,#267);
#220=AXIS2_PLACEMENT_3D('',#326,#268,#269);
#221=AXIS2_PLACEMENT_3D('',#327,#270,#271);
#222=DIRECTION('',(0.,0.,1.));
#223=DIRECTION('',(1.,0.,0.));
#224=DIRECTION('',(0.,0.,1.));
#225=DIRECTION('',(1.,0.,0.));
#226=DIRECTION('',(0.,0.,1.));
#227=DIRECTION('',(1.,0.,0.));
#228=DIRECTION('',(0.,0.,1.));
#229=DIRECTION('',(1.,0.,0.));
#230=DIRECTION('',(0.,0.707106781186548,-0.707106781186547));
#231=DIRECTION('',(0.,0.707106781186547,0.707106781186548));
#232=DIRECTION('',(0.,0.,1.));
#233=DIRECTION('',(0.,0.707106781186547,0.707106781186548));
#234=DIRECTION('',(0.,-0.707106781186548,0.707106781186547));
#235=DIRECTION('',(0.,0.,-1.));
#236=DIRECTION('',(0.,0.,-1.));
#237=DIRECTION('',(-1.,0.,0.));
#238=DIRECTION('',(0.,0.,-1.));
#239=DIRECTION('',(-1.,0.,0.));
#240=DIRECTION('',(0.,0.,1.));
#241=DIRECTION('',(1.,0.,0.));
#242=DIRECTION('',(0.,0.,1.));
#243=DIRECTION('',(-1.,0.,0.));
#244=DIRECTION('',(0.,0.,-1.));
#245=DIRECTION('',(-1.,0.,0.));
#246=DIRECTION('',(0.,0.,-1.));
#247=DIRECTION('',(-1.,0.,0.));
#248=DIRECTION('',(1.,0.,0.));
#249=DIRECTION('',(0.,0.707106781186548,-0.707106781186547));
#250=DIRECTION('',(0.,-0.707106781186547,-0.707106781186548));
#251=DIRECTION('',(1.,0.,0.));
#252=DIRECTION('',(0.,1.,-1.23908819712629E-16));
#253=DIRECTION('',(0.,-1.24032728532342E-16,-1.));
#254=DIRECTION('',(0.,0.707106781186547,0.707106781186548));
#255=DIRECTION('',(0.,0.707106781186548,-0.707106781186547));
#256=DIRECTION('',(0.,0.,-1.));
#257=DIRECTION('',(-1.,0.,0.));
#258=DIRECTION('',(0.,0.,1.));
#259=DIRECTION('',(1.,0.,0.));
#260=DIRECTION('',(0.,0.,1.));
#261=DIRECTION('',(1.,0.,0.));
#262=DIRECTION('',(0.,0.,1.));
#263=DIRECTION('',(1.,0.,0.));
#264=DIRECTION('',(0.,0.,-1.));
#265=DIRECTION('',(1.,0.,0.));
#266=DIRECTION('',(0.,0.,1.));
#267=DIRECTION('',(1.,0.,0.));
#268=DIRECTION('',(0.,0.,1.));
#269=DIRECTION('',(1.,0.,0.));
#270=DIRECTION('',(0.,0.,1.));
#271=DIRECTION('',(1.,0.,0.));
#272=CARTESIAN_POINT('',(0.,0.,0.));
#273=CARTESIAN_POINT('',(0.,0.,-40.));
#274=CARTESIAN_POINT('CRP',(-5.,0.,-72.));
#275=CARTESIAN_POINT('CIP_DCSYS',(0.,0.,-72.));
#276=CARTESIAN_POINT('',(-5.,0.,-70.5));
#277=CARTESIAN_POINT('',(-5.,0.,-63.6666666666667));
#278=CARTESIAN_POINT('',(-5.,0.,-56.8333333333333));
#279=CARTESIAN_POINT('',(-5.,0.,-50.));
#280=CARTESIAN_POINT('',(-3.33333333333333,0.,-50.));
#281=CARTESIAN_POINT('',(-1.66666666666667,0.,-50.));
#282=CARTESIAN_POINT('',(0.,0.,-50.));
#283=CARTESIAN_POINT('',(0.,0.,-57.3333333333333));
#284=CARTESIAN_POINT('',(0.,0.,-64.6666666666667));
#285=CARTESIAN_POINT('',(0.,0.,-72.));
#286=CARTESIAN_POINT('',(-1.16666666666667,0.,-72.));
#287=CARTESIAN_POINT('',(-2.33333333333333,0.,-72.));
#288=CARTESIAN_POINT('',(-3.5,0.,-72.));
#289=CARTESIAN_POINT('',(-4.37867965644036,0.,-72.));
#290=CARTESIAN_POINT('',(-5.,0.,-71.3786796564404));
#291=CARTESIAN_POINT('',(-5.,0.,-70.5));
#292=CARTESIAN_POINT('',(0.,0.,0.));
#293=CARTESIAN_POINT('',(0.,0.,-40.));
#294=CARTESIAN_POINT('',(0.,0.,-72.));
#295=CARTESIAN_POINT('',(0.,0.,-20.));
#296=CARTESIAN_POINT('',(-3.57071421427143,3.5,-16.5));
#297=CARTESIAN_POINT('',(3.57071421427143,3.5,-16.5));
#298=CARTESIAN_POINT('',(-3.57071421427143,3.5,-4.33680868994202E-16));
#299=CARTESIAN_POINT('',(-3.57071421427143,3.5,-23.5));
#300=CARTESIAN_POINT('',(0.,0.,-20.));
#301=CARTESIAN_POINT('',(3.57071421427143,3.5,-23.5));
#302=CARTESIAN_POINT('',(3.57071421427143,3.5,-4.33680868994202E-16));
#303=CARTESIAN_POINT('',(0.,0.,-0.6));
#304=CARTESIAN_POINT('',(-5.,0.,-0.6));
#305=CARTESIAN_POINT('',(0.,0.,-50.));
#306=CARTESIAN_POINT('',(-5.,0.,-50.));
#307=CARTESIAN_POINT('',(0.,0.,0.));
#308=CARTESIAN_POINT('',(0.,0.,0.));
#309=CARTESIAN_POINT('',(-4.4,0.,0.));
#310=CARTESIAN_POINT('',(0.,5.,0.));
#311=CARTESIAN_POINT('',(0.,0.,0.));
#312=CARTESIAN_POINT('',(10.,3.5,-16.5));
#313=CARTESIAN_POINT('',(10.,5.,-15.));
#314=CARTESIAN_POINT('',(10.,3.5,-23.5));
#315=CARTESIAN_POINT('',(10.,3.5,-16.5));
#316=CARTESIAN_POINT('',(10.,5.,-25.));
#317=CARTESIAN_POINT('',(0.,0.,-50.));
#318=CARTESIAN_POINT('',(0.,0.,-70.5));
#319=CARTESIAN_POINT('',(5.,0.,-70.5));
#320=CARTESIAN_POINT('',(0.,0.,-50.));
#321=CARTESIAN_POINT('',(5.,0.,-50.));
#322=CARTESIAN_POINT('',(0.,0.,0.));
#323=CARTESIAN_POINT('',(0.,0.,-72.));
#324=CARTESIAN_POINT('',(3.5,0.,-72.));
#325=CARTESIAN_POINT('',(0.,0.,-72.));
#326=CARTESIAN_POINT('',(0.,0.,-70.5));
#327=CARTESIAN_POINT('',(0.,0.,-50.));
#328=MECHANICAL_DESIGN_GEOMETRIC_PRESENTATION_REPRESENTATION('',(#171,#172,
#173,#174,#175,#176,#177,#178,#179),#329);
#329=(
GEOMETRIC_REPRESENTATION_CONTEXT(3)
GLOBAL_UNCERTAINTY_ASSIGNED_CONTEXT((#330))
GLOBAL_UNIT_ASSIGNED_CONTEXT((#336,#332,#331))
REPRESENTATION_CONTEXT('TOOL','TOP_LEVEL_ASSEMBLY_PART')
);
#330=UNCERTAINTY_MEASURE_WITH_UNIT(LENGTH_MEASURE(2.E-5),#336,
'DISTANCE_ACCURACY_VALUE','Maximum Tolerance applied to model');
#331=(
NAMED_UNIT(*)
SI_UNIT($,.STERADIAN.)
SOLID_ANGLE_UNIT()
);
#332=(
CONVERSION_BASED_UNIT('DEGREE',#334)
NAMED_UNIT(#333)
PLANE_ANGLE_UNIT()
);
#333=DIMENSIONAL_EXPONENTS(0.,0.,0.,0.,0.,0.,0.);
#334=PLANE_ANGLE_MEASURE_WITH_UNIT(PLANE_ANGLE_MEASURE(0.0174532925),#335);
#335=(
NAMED_UNIT(*)
PLANE_ANGLE_UNIT()
SI_UNIT($,.RADIAN.)
);
#336=(
LENGTH_UNIT()
NAMED_UNIT(*)
SI_UNIT(.MILLI.,.METRE.)
);
ENDSEC;
END-ISO-10303-21;
