ISO-10303-21;
HEADER;
/* Generated by software containing ST-Developer
 * from STEP Tools, Inc. (www.steptools.com) 
 */
/* OPTION: using custom schema-name function */

FILE_DESCRIPTION(
/* description */ (''),
/* implementation_level */ '2;1');

FILE_NAME(
/* name */ 'TOOL.STP',
/* time_stamp */ '2023-03-28T10:01:06+02:00',
/* author */ (''),
/* organization */ ('SMS'),
/* preprocessor_version */ 'ST-DEVELOPER v16.7',
/* originating_system */ 'SIEMENS PLM Software NX 12.0',
/* authorisation */ '');

FILE_SCHEMA (('AUTOMOTIVE_DESIGN { 1 0 10303 214 3 1 1 1 }'));
ENDSEC;

DATA;
#10=CONSTRUCTIVE_GEOMETRY_REPRESENTATION_RELATIONSHIP(
'supplemental geometry','',#26,#11);
#11=CONSTRUCTIVE_GEOMETRY_REPRESENTATION('supplemental geometry',(#296,
#297,#298),#502);
#12=GEOMETRICALLY_BOUNDED_WIREFRAME_SHAPE_REPRESENTATION('Tool-None',(#27),
#502);
#13=SHAPE_REPRESENTATION_RELATIONSHIP('None',
'relationship between Tool-None and Tool-None',#26,#15);
#14=SHAPE_REPRESENTATION_RELATIONSHIP('None',
'relationship between Tool-None and Tool-None',#26,#12);
#15=ADVANCED_BREP_SHAPE_REPRESENTATION('Tool-None',(#38,#39),#502);
#16=SHAPE_DEFINITION_REPRESENTATION(#17,#26);
#17=PRODUCT_DEFINITION_SHAPE('','',#18);
#18=PRODUCT_DEFINITION(' ','',#20,#19);
#19=PRODUCT_DEFINITION_CONTEXT('part definition',#25,'design');
#20=PRODUCT_DEFINITION_FORMATION_WITH_SPECIFIED_SOURCE(' ',' ',#22,
 .NOT_KNOWN.);
#21=PRODUCT_RELATED_PRODUCT_CATEGORY('part','',(#22));
#22=PRODUCT('Tool','Tool',' ',(#23));
#23=PRODUCT_CONTEXT(' ',#25,'mechanical');
#24=APPLICATION_PROTOCOL_DEFINITION('international standard',
'automotive_design',2010,#25);
#25=APPLICATION_CONTEXT(
'core data for automotive mechanical design processes');
#26=SHAPE_REPRESENTATION('Tool-None',(#295),#502);
#27=GEOMETRIC_CURVE_SET('None',(#412,#413,#414,#261));
#28=SURFACE_STYLE_USAGE(.BOTH.,#30);
#29=SURFACE_STYLE_USAGE(.BOTH.,#31);
#30=SURFACE_SIDE_STYLE('',(#32));
#31=SURFACE_SIDE_STYLE('',(#33));
#32=SURFACE_STYLE_FILL_AREA(#34);
#33=SURFACE_STYLE_FILL_AREA(#35);
#34=FILL_AREA_STYLE('',(#36));
#35=FILL_AREA_STYLE('',(#37));
#36=FILL_AREA_STYLE_COLOUR('',#293);
#37=FILL_AREA_STYLE_COLOUR('',#294);
#38=MANIFOLD_SOLID_BREP('NOCUT',#40);
#39=MANIFOLD_SOLID_BREP('CUT',#41);
#40=CLOSED_SHELL('',(#71,#72,#73,#74,#75,#76,#77,#78,#79,#80,#81,#82,#83,
#84));
#41=CLOSED_SHELL('',(#85,#86,#87,#88));
#42=TOROIDAL_SURFACE('',#316,13.,1.);
#43=TOROIDAL_SURFACE('',#317,13.,1.);
#44=CONICAL_SURFACE('',#307,11.5,45.0000000000001);
#45=CONICAL_SURFACE('',#309,12.,30.0000000000001);
#46=CONICAL_SURFACE('',#312,12.5,30.);
#47=CONICAL_SURFACE('',#329,12.5,45.);
#48=CYLINDRICAL_SURFACE('',#306,12.5);
#49=CYLINDRICAL_SURFACE('',#315,12.);
#50=CYLINDRICAL_SURFACE('',#327,12.5);
#51=FACE_BOUND('',#109,.T.);
#52=FACE_BOUND('',#110,.T.);
#53=FACE_BOUND('',#111,.T.);
#54=FACE_BOUND('',#113,.T.);
#55=FACE_BOUND('',#114,.T.);
#56=FACE_BOUND('',#115,.T.);
#57=FACE_BOUND('',#116,.T.);
#58=FACE_BOUND('',#117,.T.);
#59=FACE_BOUND('',#118,.T.);
#60=FACE_BOUND('',#119,.T.);
#61=FACE_BOUND('',#120,.T.);
#62=FACE_BOUND('',#121,.T.);
#63=FACE_BOUND('',#122,.T.);
#64=FACE_BOUND('',#130,.T.);
#65=FACE_BOUND('',#131,.T.);
#66=FACE_BOUND('',#132,.T.);
#67=FACE_BOUND('',#133,.T.);
#68=ELLIPSE('',#301,17.6776695296637,12.5);
#69=ELLIPSE('',#302,17.6776695296637,12.5);
#70=ELLIPSE('',#304,17.6776695296637,12.5);
#71=ADVANCED_FACE('',(#98),#89,.F.);
#72=ADVANCED_FACE('',(#51,#52,#53),#48,.T.);
#73=ADVANCED_FACE('',(#99),#44,.T.);
#74=ADVANCED_FACE('',(#54,#55),#45,.T.);
#75=ADVANCED_FACE('',(#56,#57),#46,.T.);
#76=ADVANCED_FACE('',(#58,#59),#49,.T.);
#77=ADVANCED_FACE('',(#60,#61),#42,.F.);
#78=ADVANCED_FACE('',(#62,#63),#43,.F.);
#79=ADVANCED_FACE('',(#100),#90,.T.);
#80=ADVANCED_FACE('',(#101),#91,.T.);
#81=ADVANCED_FACE('',(#102),#92,.T.);
#82=ADVANCED_FACE('',(#103),#93,.T.);
#83=ADVANCED_FACE('',(#104),#94,.T.);
#84=ADVANCED_FACE('',(#105),#95,.T.);
#85=ADVANCED_FACE('',(#106),#96,.T.);
#86=ADVANCED_FACE('',(#64,#65),#50,.T.);
#87=ADVANCED_FACE('',(#66,#67),#47,.T.);
#88=ADVANCED_FACE('',(#107),#97,.F.);
#89=PLANE('',#300);
#90=PLANE('',#318);
#91=PLANE('',#319);
#92=PLANE('',#320);
#93=PLANE('',#321);
#94=PLANE('',#322);
#95=PLANE('',#323);
#96=PLANE('',#325);
#97=PLANE('',#330);
#98=FACE_OUTER_BOUND('',#108,.T.);
#99=FACE_OUTER_BOUND('',#112,.T.);
#100=FACE_OUTER_BOUND('',#123,.T.);
#101=FACE_OUTER_BOUND('',#124,.T.);
#102=FACE_OUTER_BOUND('',#125,.T.);
#103=FACE_OUTER_BOUND('',#126,.T.);
#104=FACE_OUTER_BOUND('',#127,.T.);
#105=FACE_OUTER_BOUND('',#128,.T.);
#106=FACE_OUTER_BOUND('',#129,.T.);
#107=FACE_OUTER_BOUND('',#134,.T.);
#108=EDGE_LOOP('',(#146,#147));
#109=EDGE_LOOP('',(#148,#149,#150,#151));
#110=EDGE_LOOP('',(#152));
#111=EDGE_LOOP('',(#153,#154,#155,#156));
#112=EDGE_LOOP('',(#157,#158,#159,#160));
#113=EDGE_LOOP('',(#161));
#114=EDGE_LOOP('',(#162));
#115=EDGE_LOOP('',(#163));
#116=EDGE_LOOP('',(#164));
#117=EDGE_LOOP('',(#165));
#118=EDGE_LOOP('',(#166));
#119=EDGE_LOOP('',(#167));
#120=EDGE_LOOP('',(#168));
#121=EDGE_LOOP('',(#169));
#122=EDGE_LOOP('',(#170));
#123=EDGE_LOOP('',(#171,#172,#173,#174,#175,#176));
#124=EDGE_LOOP('',(#177,#178));
#125=EDGE_LOOP('',(#179,#180));
#126=EDGE_LOOP('',(#181,#182,#183,#184));
#127=EDGE_LOOP('',(#185,#186));
#128=EDGE_LOOP('',(#187));
#129=EDGE_LOOP('',(#188));
#130=EDGE_LOOP('',(#189));
#131=EDGE_LOOP('',(#190));
#132=EDGE_LOOP('',(#191));
#133=EDGE_LOOP('',(#192));
#134=EDGE_LOOP('',(#193));
#135=CIRCLE('',#299,11.5);
#136=CIRCLE('',#303,12.5);
#137=CIRCLE('',#305,12.5);
#138=CIRCLE('',#308,12.1339745962156);
#139=CIRCLE('',#310,12.1339745962156);
#140=CIRCLE('',#311,12.5);
#141=CIRCLE('',#313,12.);
#142=CIRCLE('',#314,12.);
#143=CIRCLE('',#324,12.5);
#144=CIRCLE('',#326,12.5);
#145=CIRCLE('',#328,12.25);
#146=ORIENTED_EDGE('',*,*,#213,.F.);
#147=ORIENTED_EDGE('',*,*,#214,.T.);
#148=ORIENTED_EDGE('',*,*,#215,.F.);
#149=ORIENTED_EDGE('',*,*,#216,.F.);
#150=ORIENTED_EDGE('',*,*,#217,.F.);
#151=ORIENTED_EDGE('',*,*,#218,.F.);
#152=ORIENTED_EDGE('',*,*,#219,.T.);
#153=ORIENTED_EDGE('',*,*,#220,.F.);
#154=ORIENTED_EDGE('',*,*,#221,.F.);
#155=ORIENTED_EDGE('',*,*,#222,.F.);
#156=ORIENTED_EDGE('',*,*,#223,.T.);
#157=ORIENTED_EDGE('',*,*,#223,.F.);
#158=ORIENTED_EDGE('',*,*,#224,.T.);
#159=ORIENTED_EDGE('',*,*,#214,.F.);
#160=ORIENTED_EDGE('',*,*,#225,.T.);
#161=ORIENTED_EDGE('',*,*,#226,.T.);
#162=ORIENTED_EDGE('',*,*,#219,.F.);
#163=ORIENTED_EDGE('',*,*,#227,.T.);
#164=ORIENTED_EDGE('',*,*,#228,.F.);
#165=ORIENTED_EDGE('',*,*,#229,.T.);
#166=ORIENTED_EDGE('',*,*,#230,.T.);
#167=ORIENTED_EDGE('',*,*,#230,.F.);
#168=ORIENTED_EDGE('',*,*,#226,.F.);
#169=ORIENTED_EDGE('',*,*,#227,.F.);
#170=ORIENTED_EDGE('',*,*,#229,.F.);
#171=ORIENTED_EDGE('',*,*,#222,.T.);
#172=ORIENTED_EDGE('',*,*,#231,.F.);
#173=ORIENTED_EDGE('',*,*,#220,.T.);
#174=ORIENTED_EDGE('',*,*,#225,.F.);
#175=ORIENTED_EDGE('',*,*,#213,.T.);
#176=ORIENTED_EDGE('',*,*,#224,.F.);
#177=ORIENTED_EDGE('',*,*,#221,.T.);
#178=ORIENTED_EDGE('',*,*,#231,.T.);
#179=ORIENTED_EDGE('',*,*,#215,.T.);
#180=ORIENTED_EDGE('',*,*,#232,.F.);
#181=ORIENTED_EDGE('',*,*,#216,.T.);
#182=ORIENTED_EDGE('',*,*,#232,.T.);
#183=ORIENTED_EDGE('',*,*,#218,.T.);
#184=ORIENTED_EDGE('',*,*,#233,.F.);
#185=ORIENTED_EDGE('',*,*,#217,.T.);
#186=ORIENTED_EDGE('',*,*,#233,.T.);
#187=ORIENTED_EDGE('',*,*,#228,.T.);
#188=ORIENTED_EDGE('',*,*,#234,.T.);
#189=ORIENTED_EDGE('',*,*,#234,.F.);
#190=ORIENTED_EDGE('',*,*,#235,.T.);
#191=ORIENTED_EDGE('',*,*,#236,.T.);
#192=ORIENTED_EDGE('',*,*,#235,.F.);
#193=ORIENTED_EDGE('',*,*,#236,.F.);
#194=VERTEX_POINT('',#435);
#195=VERTEX_POINT('',#436);
#196=VERTEX_POINT('',#440);
#197=VERTEX_POINT('',#441);
#198=VERTEX_POINT('',#443);
#199=VERTEX_POINT('',#445);
#200=VERTEX_POINT('',#448);
#201=VERTEX_POINT('',#450);
#202=VERTEX_POINT('',#451);
#203=VERTEX_POINT('',#453);
#204=VERTEX_POINT('',#455);
#205=VERTEX_POINT('',#468);
#206=VERTEX_POINT('',#471);
#207=VERTEX_POINT('',#473);
#208=VERTEX_POINT('',#476);
#209=VERTEX_POINT('',#478);
#210=VERTEX_POINT('',#492);
#211=VERTEX_POINT('',#495);
#212=VERTEX_POINT('',#498);
#213=EDGE_CURVE('',#194,#195,#237,.T.);
#214=EDGE_CURVE('',#194,#195,#135,.T.);
#215=EDGE_CURVE('',#196,#197,#68,.T.);
#216=EDGE_CURVE('',#198,#196,#238,.T.);
#217=EDGE_CURVE('',#199,#198,#69,.T.);
#218=EDGE_CURVE('',#197,#199,#239,.T.);
#219=EDGE_CURVE('',#200,#200,#136,.T.);
#220=EDGE_CURVE('',#201,#202,#240,.T.);
#221=EDGE_CURVE('',#203,#201,#70,.T.);
#222=EDGE_CURVE('',#204,#203,#241,.T.);
#223=EDGE_CURVE('',#204,#202,#137,.T.);
#224=EDGE_CURVE('',#204,#195,#262,.T.);
#225=EDGE_CURVE('',#194,#202,#263,.T.);
#226=EDGE_CURVE('',#205,#205,#138,.T.);
#227=EDGE_CURVE('',#206,#206,#139,.T.);
#228=EDGE_CURVE('',#207,#207,#140,.T.);
#229=EDGE_CURVE('',#208,#208,#141,.T.);
#230=EDGE_CURVE('',#209,#209,#142,.T.);
#231=EDGE_CURVE('',#201,#203,#242,.T.);
#232=EDGE_CURVE('',#196,#197,#243,.T.);
#233=EDGE_CURVE('',#198,#199,#244,.T.);
#234=EDGE_CURVE('',#210,#210,#143,.T.);
#235=EDGE_CURVE('',#211,#211,#144,.T.);
#236=EDGE_CURVE('',#212,#212,#145,.T.);
#237=LINE('',#434,#245);
#238=LINE('',#442,#246);
#239=LINE('',#446,#247);
#240=LINE('',#449,#248);
#241=LINE('',#454,#249);
#242=LINE('',#482,#250);
#243=LINE('',#485,#251);
#244=LINE('',#487,#252);
#245=VECTOR('',#339,1.);
#246=VECTOR('',#346,1.);
#247=VECTOR('',#349,1.);
#248=VECTOR('',#352,1.);
#249=VECTOR('',#355,1.);
#250=VECTOR('',#382,1.);
#251=VECTOR('',#387,1.);
#252=VECTOR('',#390,1.);
#253=CURVE_STYLE('',#257,POSITIVE_LENGTH_MEASURE(0.18),#265);
#254=CURVE_STYLE('',#258,POSITIVE_LENGTH_MEASURE(0.13),#292);
#255=CURVE_STYLE('',#259,POSITIVE_LENGTH_MEASURE(0.18),#291);
#256=CURVE_STYLE('',#260,POSITIVE_LENGTH_MEASURE(0.18),#291);
#257=DRAUGHTING_PRE_DEFINED_CURVE_FONT('continuous');
#258=DRAUGHTING_PRE_DEFINED_CURVE_FONT('continuous');
#259=DRAUGHTING_PRE_DEFINED_CURVE_FONT('continuous');
#260=DRAUGHTING_PRE_DEFINED_CURVE_FONT('continuous');
#261=B_SPLINE_CURVE_WITH_KNOTS('CUTTING PART LINE',3,(#415,#416,#417,#418,
#419,#420,#421,#422,#423,#424,#425,#426,#427,#428,#429,#430),
 .UNSPECIFIED.,.T.,.F.,(4,3,3,3,3,4),(0.,0.401618726363317,0.498628080557355,
0.902186994003777,0.997256161113159,1.),.UNSPECIFIED.);
#262=B_SPLINE_CURVE_WITH_KNOTS('',3,(#458,#459,#460,#461),.UNSPECIFIED.,
 .F.,.F.,(4,4),(0.,1.),.UNSPECIFIED.);
#263=B_SPLINE_CURVE_WITH_KNOTS('',3,(#462,#463,#464,#465),.UNSPECIFIED.,
 .F.,.F.,(4,4),(0.,1.),.UNSPECIFIED.);
#264=DRAUGHTING_PRE_DEFINED_COLOUR('white');
#265=DRAUGHTING_PRE_DEFINED_COLOUR('blue');
#266=PRESENTATION_LAYER_ASSIGNMENT('1','Layer 1',(#412,#413,#414,#261,#296,
#297,#298,#38,#39));
#267=STYLED_ITEM('',(#276),#412);
#268=STYLED_ITEM('',(#277),#413);
#269=STYLED_ITEM('',(#278),#414);
#270=STYLED_ITEM('',(#279),#261);
#271=STYLED_ITEM('',(#280),#296);
#272=STYLED_ITEM('',(#281),#297);
#273=STYLED_ITEM('',(#282),#298);
#274=STYLED_ITEM('',(#283),#38);
#275=STYLED_ITEM('',(#284),#39);
#276=PRESENTATION_STYLE_ASSIGNMENT((#285));
#277=PRESENTATION_STYLE_ASSIGNMENT((#286));
#278=PRESENTATION_STYLE_ASSIGNMENT((#287));
#279=PRESENTATION_STYLE_ASSIGNMENT((#253));
#280=PRESENTATION_STYLE_ASSIGNMENT((#254));
#281=PRESENTATION_STYLE_ASSIGNMENT((#255));
#282=PRESENTATION_STYLE_ASSIGNMENT((#256));
#283=PRESENTATION_STYLE_ASSIGNMENT((#28));
#284=PRESENTATION_STYLE_ASSIGNMENT((#29));
#285=POINT_STYLE('',#288,POSITIVE_LENGTH_MEASURE(3.),#291);
#286=POINT_STYLE('',#289,POSITIVE_LENGTH_MEASURE(3.),#264);
#287=POINT_STYLE('',#290,POSITIVE_LENGTH_MEASURE(3.),#291);
#288=PRE_DEFINED_POINT_MARKER_SYMBOL('plus');
#289=PRE_DEFINED_POINT_MARKER_SYMBOL('plus');
#290=PRE_DEFINED_POINT_MARKER_SYMBOL('plus');
#291=COLOUR_RGB('Medium Maroon',0.6,0.4,0.4);
#292=COLOUR_RGB('Silver Gray',0.6,0.6,0.6);
#293=COLOUR_RGB('TLS_NOCUT',0.498023956664378,0.498023956664378,0.498023956664378);
#294=COLOUR_RGB('TLS_CUT',0.8,0.8,0.8);
#295=AXIS2_PLACEMENT_3D('',#411,#331,#332);
#296=AXIS2_PLACEMENT_3D('PCS',#431,#333,#334);
#297=AXIS2_PLACEMENT_3D('MCS',#432,#335,#336);
#298=AXIS2_PLACEMENT_3D('CIP',#433,#337,#338);
#299=AXIS2_PLACEMENT_3D('',#437,#340,#341);
#300=AXIS2_PLACEMENT_3D('',#438,#342,#343);
#301=AXIS2_PLACEMENT_3D('',#439,#344,#345);
#302=AXIS2_PLACEMENT_3D('',#444,#347,#348);
#303=AXIS2_PLACEMENT_3D('',#447,#350,#351);
#304=AXIS2_PLACEMENT_3D('',#452,#353,#354);
#305=AXIS2_PLACEMENT_3D('',#456,#356,#357);
#306=AXIS2_PLACEMENT_3D('',#457,#358,#359);
#307=AXIS2_PLACEMENT_3D('',#466,#360,#361);
#308=AXIS2_PLACEMENT_3D('',#467,#362,#363);
#309=AXIS2_PLACEMENT_3D('',#469,#364,#365);
#310=AXIS2_PLACEMENT_3D('',#470,#366,#367);
#311=AXIS2_PLACEMENT_3D('',#472,#368,#369);
#312=AXIS2_PLACEMENT_3D('',#474,#370,#371);
#313=AXIS2_PLACEMENT_3D('',#475,#372,#373);
#314=AXIS2_PLACEMENT_3D('',#477,#374,#375);
#315=AXIS2_PLACEMENT_3D('',#479,#376,#377);
#316=AXIS2_PLACEMENT_3D('',#480,#378,#379);
#317=AXIS2_PLACEMENT_3D('',#481,#380,#381);
#318=AXIS2_PLACEMENT_3D('',#483,#383,#384);
#319=AXIS2_PLACEMENT_3D('',#484,#385,#386);
#320=AXIS2_PLACEMENT_3D('',#486,#388,#389);
#321=AXIS2_PLACEMENT_3D('',#488,#391,#392);
#322=AXIS2_PLACEMENT_3D('',#489,#393,#394);
#323=AXIS2_PLACEMENT_3D('',#490,#395,#396);
#324=AXIS2_PLACEMENT_3D('',#491,#397,#398);
#325=AXIS2_PLACEMENT_3D('',#493,#399,#400);
#326=AXIS2_PLACEMENT_3D('',#494,#401,#402);
#327=AXIS2_PLACEMENT_3D('',#496,#403,#404);
#328=AXIS2_PLACEMENT_3D('',#497,#405,#406);
#329=AXIS2_PLACEMENT_3D('',#499,#407,#408);
#330=AXIS2_PLACEMENT_3D('',#500,#409,#410);
#331=DIRECTION('',(0.,0.,1.));
#332=DIRECTION('',(1.,0.,0.));
#333=DIRECTION('',(0.,0.,1.));
#334=DIRECTION('',(1.,0.,0.));
#335=DIRECTION('',(0.,0.,1.));
#336=DIRECTION('',(1.,0.,0.));
#337=DIRECTION('',(0.,0.,1.));
#338=DIRECTION('',(1.,0.,0.));
#339=DIRECTION('',(1.,0.,0.));
#340=DIRECTION('',(0.,0.,1.));
#341=DIRECTION('',(-1.,0.,0.));
#342=DIRECTION('',(0.,0.,-1.));
#343=DIRECTION('',(-1.,0.,0.));
#344=DIRECTION('',(0.,0.707106781186548,-0.707106781186548));
#345=DIRECTION('',(0.,0.707106781186548,0.707106781186548));
#346=DIRECTION('',(0.,0.,1.));
#347=DIRECTION('',(0.,0.707106781186548,0.707106781186547));
#348=DIRECTION('',(0.,-0.707106781186547,0.707106781186548));
#349=DIRECTION('',(0.,0.,-1.));
#350=DIRECTION('',(0.,0.,1.));
#351=DIRECTION('',(1.,0.,0.));
#352=DIRECTION('',(0.,0.,1.));
#353=DIRECTION('',(0.,0.707106781186548,0.707106781186547));
#354=DIRECTION('',(0.,-0.707106781186547,0.707106781186548));
#355=DIRECTION('',(0.,0.,-1.));
#356=DIRECTION('',(0.,0.,-1.));
#357=DIRECTION('',(-1.,0.,0.));
#358=DIRECTION('',(0.,0.,1.));
#359=DIRECTION('',(1.,0.,0.));
#360=DIRECTION('',(0.,0.,-1.));
#361=DIRECTION('',(-1.,0.,0.));
#362=DIRECTION('',(0.,0.,1.));
#363=DIRECTION('',(1.,0.,0.));
#364=DIRECTION('',(0.,0.,1.));
#365=DIRECTION('',(1.,0.,9.4190423137648E-17));
#366=DIRECTION('',(0.,0.,-1.));
#367=DIRECTION('',(-1.,0.,0.));
#368=DIRECTION('',(0.,0.,-1.));
#369=DIRECTION('',(-1.,0.,0.));
#370=DIRECTION('',(0.,0.,-1.));
#371=DIRECTION('',(-1.,0.,9.41105804826073E-17));
#372=DIRECTION('',(0.,0.,1.));
#373=DIRECTION('',(1.,0.,0.));
#374=DIRECTION('',(0.,0.,-1.));
#375=DIRECTION('',(1.,0.,0.));
#376=DIRECTION('',(0.,0.,1.));
#377=DIRECTION('',(1.,0.,0.));
#378=DIRECTION('',(0.,0.,1.));
#379=DIRECTION('',(1.,0.,0.));
#380=DIRECTION('',(0.,0.,1.));
#381=DIRECTION('',(1.,0.,0.));
#382=DIRECTION('',(1.,0.,0.));
#383=DIRECTION('',(0.,1.,0.));
#384=DIRECTION('',(0.,0.,-1.));
#385=DIRECTION('',(0.,0.707106781186548,0.707106781186547));
#386=DIRECTION('',(0.,0.707106781186547,-0.707106781186548));
#387=DIRECTION('',(1.,0.,0.));
#388=DIRECTION('',(0.,0.707106781186548,-0.707106781186548));
#389=DIRECTION('',(0.,-0.707106781186548,-0.707106781186548));
#390=DIRECTION('',(1.,0.,0.));
#391=DIRECTION('',(0.,1.,-1.44560289664734E-16));
#392=DIRECTION('',(0.,-1.43982048506075E-16,-1.));
#393=DIRECTION('',(0.,0.707106781186548,0.707106781186547));
#394=DIRECTION('',(0.,0.707106781186547,-0.707106781186548));
#395=DIRECTION('',(0.,0.,-1.));
#396=DIRECTION('',(-1.,0.,0.));
#397=DIRECTION('',(0.,0.,1.));
#398=DIRECTION('',(1.,0.,0.));
#399=DIRECTION('',(0.,0.,1.));
#400=DIRECTION('',(1.,0.,0.));
#401=DIRECTION('',(0.,0.,1.));
#402=DIRECTION('',(1.,0.,0.));
#403=DIRECTION('',(0.,0.,1.));
#404=DIRECTION('',(1.,0.,0.));
#405=DIRECTION('',(0.,0.,1.));
#406=DIRECTION('',(1.,0.,0.));
#407=DIRECTION('',(0.,0.,1.));
#408=DIRECTION('',(1.,0.,-2.74129141882755E-17));
#409=DIRECTION('',(0.,0.,1.));
#410=DIRECTION('',(1.,0.,0.));
#411=CARTESIAN_POINT('',(0.,0.,0.));
#412=CARTESIAN_POINT('',(0.,0.,-56.));
#413=CARTESIAN_POINT('CRP',(-12.5,0.,-121.));
#414=CARTESIAN_POINT('CIP_DCSYS',(0.,0.,-121.));
#415=CARTESIAN_POINT('',(-12.5,0.,-120.75));
#416=CARTESIAN_POINT('',(-12.5,0.,-103.5));
#417=CARTESIAN_POINT('',(-12.5,0.,-86.25));
#418=CARTESIAN_POINT('',(-12.5,0.,-69.));
#419=CARTESIAN_POINT('',(-8.33333333333334,0.,-69.));
#420=CARTESIAN_POINT('',(-4.16666666666667,0.,-69.));
#421=CARTESIAN_POINT('',(0.,0.,-69.));
#422=CARTESIAN_POINT('',(0.,0.,-86.3333333333333));
#423=CARTESIAN_POINT('',(0.,0.,-103.666666666667));
#424=CARTESIAN_POINT('',(0.,0.,-121.));
#425=CARTESIAN_POINT('',(-4.08333333333333,0.,-121.));
#426=CARTESIAN_POINT('',(-8.16666666666666,0.,-121.));
#427=CARTESIAN_POINT('',(-12.25,0.,-121.));
#428=CARTESIAN_POINT('',(-12.3333333333333,0.,-120.916666666667));
#429=CARTESIAN_POINT('',(-12.4166666666667,0.,-120.833333333333));
#430=CARTESIAN_POINT('',(-12.5,0.,-120.75));
#431=CARTESIAN_POINT('',(0.,0.,0.));
#432=CARTESIAN_POINT('',(0.,0.,-56.));
#433=CARTESIAN_POINT('',(0.,0.,-121.));
#434=CARTESIAN_POINT('',(0.,10.5,0.));
#435=CARTESIAN_POINT('',(-4.69041575982344,10.5,-1.23795024519963E-16));
#436=CARTESIAN_POINT('',(4.69041575982344,10.5,0.));
#437=CARTESIAN_POINT('',(0.,0.,0.));
#438=CARTESIAN_POINT('',(0.,12.5,0.));
#439=CARTESIAN_POINT('',(0.,0.,-36.5));
#440=CARTESIAN_POINT('',(-6.78232998312526,10.5,-26.));
#441=CARTESIAN_POINT('',(6.78232998312526,10.5,-26.));
#442=CARTESIAN_POINT('',(-6.78232998312526,10.5,20.9080749503476));
#443=CARTESIAN_POINT('',(-6.78232998312527,10.5,-38.));
#444=CARTESIAN_POINT('',(0.,0.,-27.5));
#445=CARTESIAN_POINT('',(6.78232998312528,10.5,-38.));
#446=CARTESIAN_POINT('',(6.78232998312526,10.5,20.9080749503476));
#447=CARTESIAN_POINT('',(0.,0.,-56.8637043259453));
#448=CARTESIAN_POINT('',(12.5,0.,-56.8637043259453));
#449=CARTESIAN_POINT('',(-6.78232998312528,10.5,20.9080749503476));
#450=CARTESIAN_POINT('',(-6.78232998312527,10.5,-17.));
#451=CARTESIAN_POINT('',(-6.78232998312528,10.5,-0.999999999999997));
#452=CARTESIAN_POINT('',(0.,0.,-6.5));
#453=CARTESIAN_POINT('',(6.78232998312527,10.5,-17.));
#454=CARTESIAN_POINT('',(6.78232998312528,10.5,20.9080749503476));
#455=CARTESIAN_POINT('',(6.78232998312528,10.5,-0.999999999999997));
#456=CARTESIAN_POINT('',(0.,0.,-0.999999999999997));
#457=CARTESIAN_POINT('',(0.,0.,20.9080749503476));
#458=CARTESIAN_POINT('',(6.78232998312528,10.5,-0.999999999999997));
#459=CARTESIAN_POINT('',(6.1018010621907,10.5,-0.63075426361292));
#460=CARTESIAN_POINT('',(5.40395096505582,10.5,-0.291024067113982));
#461=CARTESIAN_POINT('',(4.69041575982344,10.5,3.88610844072734E-16));
#462=CARTESIAN_POINT('',(-4.69041575982344,10.5,-1.88966873347019E-15));
#463=CARTESIAN_POINT('',(-5.40445364369694,10.5,-0.291229090750545));
#464=CARTESIAN_POINT('',(-6.1056876934673,10.5,-0.632863096880171));
#465=CARTESIAN_POINT('',(-6.78232998312528,10.5,-0.999999999999999));
#466=CARTESIAN_POINT('',(0.,0.,0.));
#467=CARTESIAN_POINT('',(0.,0.,-57.4976789221609));
#468=CARTESIAN_POINT('',(12.1339745962156,0.,-57.4976789221609));
#469=CARTESIAN_POINT('',(0.,0.,-57.7297297297297));
#470=CARTESIAN_POINT('',(0.,0.,-68.3660254037844));
#471=CARTESIAN_POINT('',(-12.1339745962156,0.,-68.3660254037844));
#472=CARTESIAN_POINT('',(0.,0.,-69.));
#473=CARTESIAN_POINT('',(-12.5,0.,-69.));
#474=CARTESIAN_POINT('',(0.,0.,-69.));
#475=CARTESIAN_POINT('',(0.,0.,-67.8660254037844));
#476=CARTESIAN_POINT('',(12.,0.,-67.8660254037844));
#477=CARTESIAN_POINT('',(0.,0.,-57.9976789221609));
#478=CARTESIAN_POINT('',(12.,0.,-57.9976789221609));
#479=CARTESIAN_POINT('',(0.,0.,0.));
#480=CARTESIAN_POINT('',(0.,0.,-57.9976789221609));
#481=CARTESIAN_POINT('',(0.,0.,-67.8660254037844));
#482=CARTESIAN_POINT('',(10.,10.5,-17.));
#483=CARTESIAN_POINT('',(10.,10.5,2.));
#484=CARTESIAN_POINT('',(10.,10.5,-17.));
#485=CARTESIAN_POINT('',(10.,10.5,-26.));
#486=CARTESIAN_POINT('',(10.,12.5,-24.));
#487=CARTESIAN_POINT('',(10.,10.5,-38.));
#488=CARTESIAN_POINT('',(10.,10.5,-26.));
#489=CARTESIAN_POINT('',(10.,12.5,-40.));
#490=CARTESIAN_POINT('',(0.,0.,-69.));
#491=CARTESIAN_POINT('',(0.,0.,-69.));
#492=CARTESIAN_POINT('',(12.5,0.,-69.));
#493=CARTESIAN_POINT('',(0.,0.,-69.));
#494=CARTESIAN_POINT('',(0.,0.,-120.75));
#495=CARTESIAN_POINT('',(12.5,0.,-120.75));
#496=CARTESIAN_POINT('',(0.,0.,0.));
#497=CARTESIAN_POINT('',(0.,0.,-121.));
#498=CARTESIAN_POINT('',(12.25,0.,-121.));
#499=CARTESIAN_POINT('',(0.,0.,-120.75));
#500=CARTESIAN_POINT('',(0.,0.,-121.));
#501=MECHANICAL_DESIGN_GEOMETRIC_PRESENTATION_REPRESENTATION('',(#267,#268,
#269,#270,#271,#272,#273,#274,#275),#502);
#502=(
GEOMETRIC_REPRESENTATION_CONTEXT(3)
GLOBAL_UNCERTAINTY_ASSIGNED_CONTEXT((#503))
GLOBAL_UNIT_ASSIGNED_CONTEXT((#509,#505,#504))
REPRESENTATION_CONTEXT('TOOL','TOP_LEVEL_ASSEMBLY_PART')
);
#503=UNCERTAINTY_MEASURE_WITH_UNIT(LENGTH_MEASURE(0.0508),#509,
'DISTANCE_ACCURACY_VALUE','Maximum Tolerance applied to model');
#504=(
NAMED_UNIT(*)
SI_UNIT($,.STERADIAN.)
SOLID_ANGLE_UNIT()
);
#505=(
CONVERSION_BASED_UNIT('DEGREE',#507)
NAMED_UNIT(#506)
PLANE_ANGLE_UNIT()
);
#506=DIMENSIONAL_EXPONENTS(0.,0.,0.,0.,0.,0.,0.);
#507=PLANE_ANGLE_MEASURE_WITH_UNIT(PLANE_ANGLE_MEASURE(0.0174532925),#508);
#508=(
NAMED_UNIT(*)
PLANE_ANGLE_UNIT()
SI_UNIT($,.RADIAN.)
);
#509=(
LENGTH_UNIT()
NAMED_UNIT(*)
SI_UNIT(.MILLI.,.METRE.)
);
ENDSEC;
END-ISO-10303-21;
