ISO-10303-21;
HEADER;
/* Generated by software containing ST-Developer
 * from STEP Tools, Inc. (www.steptools.com) 
 */
/* OPTION: using custom schema-name function */

FILE_DESCRIPTION(
/* description */ (''),
/* implementation_level */ '2;1');

FILE_NAME(
/* name */ 'TOOL.STP',
/* time_stamp */ '2023-03-28T09:57:33+02:00',
/* author */ (''),
/* organization */ ('SMS'),
/* preprocessor_version */ 'ST-DEVELOPER v16.7',
/* originating_system */ 'SIEMENS PLM Software NX 12.0',
/* authorisation */ '');

FILE_SCHEMA (('AUTOMOTIVE_DESIGN { 1 0 10303 214 3 1 1 1 }'));
ENDSEC;

DATA;
#10=CONSTRUCTIVE_GEOMETRY_REPRESENTATION_RELATIONSHIP(
'supplemental geometry','',#26,#11);
#11=CONSTRUCTIVE_GEOMETRY_REPRESENTATION('supplemental geometry',(#187,
#188,#189),#311);
#12=GEOMETRICALLY_BOUNDED_WIREFRAME_SHAPE_REPRESENTATION('Tool-None',(#27),
#311);
#13=SHAPE_REPRESENTATION_RELATIONSHIP('None',
'relationship between Tool-None and Tool-None',#26,#15);
#14=SHAPE_REPRESENTATION_RELATIONSHIP('None',
'relationship between Tool-None and Tool-None',#26,#12);
#15=ADVANCED_BREP_SHAPE_REPRESENTATION('Tool-None',(#38,#39),#311);
#16=SHAPE_DEFINITION_REPRESENTATION(#17,#26);
#17=PRODUCT_DEFINITION_SHAPE('','',#18);
#18=PRODUCT_DEFINITION(' ','',#20,#19);
#19=PRODUCT_DEFINITION_CONTEXT('part definition',#25,'design');
#20=PRODUCT_DEFINITION_FORMATION_WITH_SPECIFIED_SOURCE(' ',' ',#22,
 .NOT_KNOWN.);
#21=PRODUCT_RELATED_PRODUCT_CATEGORY('part','',(#22));
#22=PRODUCT('Tool','Tool',' ',(#23));
#23=PRODUCT_CONTEXT(' ',#25,'mechanical');
#24=APPLICATION_PROTOCOL_DEFINITION('international standard',
'automotive_design',2010,#25);
#25=APPLICATION_CONTEXT(
'core data for automotive mechanical design processes');
#26=SHAPE_REPRESENTATION('Tool-None',(#186),#311);
#27=GEOMETRIC_CURVE_SET('None',(#259,#260,#261,#153));
#28=SURFACE_STYLE_USAGE(.BOTH.,#30);
#29=SURFACE_STYLE_USAGE(.BOTH.,#31);
#30=SURFACE_SIDE_STYLE('',(#32));
#31=SURFACE_SIDE_STYLE('',(#33));
#32=SURFACE_STYLE_FILL_AREA(#34);
#33=SURFACE_STYLE_FILL_AREA(#35);
#34=FILL_AREA_STYLE('',(#36));
#35=FILL_AREA_STYLE('',(#37));
#36=FILL_AREA_STYLE_COLOUR('',#184);
#37=FILL_AREA_STYLE_COLOUR('',#185);
#38=MANIFOLD_SOLID_BREP('NOCUT',#40);
#39=MANIFOLD_SOLID_BREP('CUT',#41);
#40=CLOSED_SHELL('',(#54,#55,#56,#57,#58,#59,#60));
#41=CLOSED_SHELL('',(#61,#62,#63,#64));
#42=PLANE('',#198);
#43=PLANE('',#202);
#44=PLANE('',#204);
#45=PLANE('',#208);
#46=FACE_OUTER_BOUND('',#88,.T.);
#47=FACE_OUTER_BOUND('',#93,.T.);
#48=FACE_OUTER_BOUND('',#94,.T.);
#49=FACE_OUTER_BOUND('',#97,.T.);
#50=TOROIDAL_SURFACE('',#196,2.5875,1.);
#51=TOROIDAL_SURFACE('',#209,1.2065,0.381);
#52=CONICAL_SURFACE('',#195,1.5875,30.0000000000001);
#53=CONICAL_SURFACE('',#201,2.775,45.);
#54=ADVANCED_FACE('',(#68,#69),#65,.T.);
#55=ADVANCED_FACE('',(#70,#71),#52,.T.);
#56=ADVANCED_FACE('',(#72,#73),#50,.F.);
#57=ADVANCED_FACE('',(#46),#42,.F.);
#58=ADVANCED_FACE('',(#74,#75),#66,.T.);
#59=ADVANCED_FACE('',(#76,#77),#53,.T.);
#60=ADVANCED_FACE('',(#47),#43,.T.);
#61=ADVANCED_FACE('',(#48),#44,.T.);
#62=ADVANCED_FACE('',(#78,#79),#67,.T.);
#63=ADVANCED_FACE('',(#49),#45,.F.);
#64=ADVANCED_FACE('',(#80,#81),#51,.T.);
#65=CYLINDRICAL_SURFACE('',#192,1.5875);
#66=CYLINDRICAL_SURFACE('',#200,3.175);
#67=CYLINDRICAL_SURFACE('',#206,1.5875);
#68=FACE_BOUND('',#82,.T.);
#69=FACE_BOUND('',#83,.T.);
#70=FACE_BOUND('',#84,.T.);
#71=FACE_BOUND('',#85,.T.);
#72=FACE_BOUND('',#86,.T.);
#73=FACE_BOUND('',#87,.T.);
#74=FACE_BOUND('',#89,.T.);
#75=FACE_BOUND('',#90,.T.);
#76=FACE_BOUND('',#91,.T.);
#77=FACE_BOUND('',#92,.T.);
#78=FACE_BOUND('',#95,.T.);
#79=FACE_BOUND('',#96,.T.);
#80=FACE_BOUND('',#98,.T.);
#81=FACE_BOUND('',#99,.T.);
#82=EDGE_LOOP('',(#100));
#83=EDGE_LOOP('',(#101));
#84=EDGE_LOOP('',(#102));
#85=EDGE_LOOP('',(#103));
#86=EDGE_LOOP('',(#104));
#87=EDGE_LOOP('',(#105));
#88=EDGE_LOOP('',(#106));
#89=EDGE_LOOP('',(#107));
#90=EDGE_LOOP('',(#108));
#91=EDGE_LOOP('',(#109));
#92=EDGE_LOOP('',(#110));
#93=EDGE_LOOP('',(#111));
#94=EDGE_LOOP('',(#112));
#95=EDGE_LOOP('',(#113));
#96=EDGE_LOOP('',(#114));
#97=EDGE_LOOP('',(#115));
#98=EDGE_LOOP('',(#116));
#99=EDGE_LOOP('',(#117));
#100=ORIENTED_EDGE('',*,*,#127,.T.);
#101=ORIENTED_EDGE('',*,*,#128,.F.);
#102=ORIENTED_EDGE('',*,*,#129,.T.);
#103=ORIENTED_EDGE('',*,*,#130,.F.);
#104=ORIENTED_EDGE('',*,*,#127,.F.);
#105=ORIENTED_EDGE('',*,*,#129,.F.);
#106=ORIENTED_EDGE('',*,*,#131,.T.);
#107=ORIENTED_EDGE('',*,*,#132,.T.);
#108=ORIENTED_EDGE('',*,*,#130,.T.);
#109=ORIENTED_EDGE('',*,*,#132,.F.);
#110=ORIENTED_EDGE('',*,*,#131,.F.);
#111=ORIENTED_EDGE('',*,*,#128,.T.);
#112=ORIENTED_EDGE('',*,*,#133,.T.);
#113=ORIENTED_EDGE('',*,*,#134,.T.);
#114=ORIENTED_EDGE('',*,*,#133,.F.);
#115=ORIENTED_EDGE('',*,*,#135,.T.);
#116=ORIENTED_EDGE('',*,*,#135,.F.);
#117=ORIENTED_EDGE('',*,*,#134,.F.);
#118=VERTEX_POINT('',#282);
#119=VERTEX_POINT('',#284);
#120=VERTEX_POINT('',#287);
#121=VERTEX_POINT('',#289);
#122=VERTEX_POINT('',#293);
#123=VERTEX_POINT('',#296);
#124=VERTEX_POINT('',#301);
#125=VERTEX_POINT('',#304);
#126=VERTEX_POINT('',#307);
#127=EDGE_CURVE('',#118,#118,#136,.T.);
#128=EDGE_CURVE('',#119,#119,#137,.T.);
#129=EDGE_CURVE('',#120,#120,#138,.T.);
#130=EDGE_CURVE('',#121,#121,#139,.T.);
#131=EDGE_CURVE('',#122,#122,#140,.T.);
#132=EDGE_CURVE('',#123,#123,#141,.T.);
#133=EDGE_CURVE('',#124,#124,#142,.T.);
#134=EDGE_CURVE('',#125,#125,#143,.T.);
#135=EDGE_CURVE('',#126,#126,#144,.T.);
#136=CIRCLE('',#190,1.5875);
#137=CIRCLE('',#191,1.5875);
#138=CIRCLE('',#193,1.72147459621556);
#139=CIRCLE('',#194,3.175);
#140=CIRCLE('',#197,2.775);
#141=CIRCLE('',#199,3.175);
#142=CIRCLE('',#203,1.5875);
#143=CIRCLE('',#205,1.5875);
#144=CIRCLE('',#207,1.2065);
#145=CURVE_STYLE('',#149,POSITIVE_LENGTH_MEASURE(0.18),#156);
#146=CURVE_STYLE('',#150,POSITIVE_LENGTH_MEASURE(0.13),#183);
#147=CURVE_STYLE('',#151,POSITIVE_LENGTH_MEASURE(0.18),#182);
#148=CURVE_STYLE('',#152,POSITIVE_LENGTH_MEASURE(0.18),#182);
#149=DRAUGHTING_PRE_DEFINED_CURVE_FONT('continuous');
#150=DRAUGHTING_PRE_DEFINED_CURVE_FONT('continuous');
#151=DRAUGHTING_PRE_DEFINED_CURVE_FONT('continuous');
#152=DRAUGHTING_PRE_DEFINED_CURVE_FONT('continuous');
#153=TRIMMED_CURVE('CUTTING PART LINE',#154,(PARAMETER_VALUE(0.)),(
PARAMETER_VALUE(1.)),.T.,.PARAMETER.);
#154=(
BOUNDED_CURVE()
B_SPLINE_CURVE(3,(#262,#263,#264,#265,#266,#267,#268,#269,#270,#271,#272,
#273,#274,#275,#276,#277),.UNSPECIFIED.,.T.,.F.)
B_SPLINE_CURVE_WITH_KNOTS((1,3,3,3,3,3,3,1),(-0.0316795512884929,0.,0.400127604646229,
0.484160224355754,0.904455657732269,0.968320448711507,1.,1.40012760464623),
 .UNSPECIFIED.)
CURVE()
GEOMETRIC_REPRESENTATION_ITEM()
RATIONAL_B_SPLINE_CURVE((1.,1.,1.,1.,1.,1.,1.,1.,1.,1.,1.,1.,1.,0.804737854124365,
0.804737854124365,1.))
REPRESENTATION_ITEM('CUTTING PART LINE')
);
#155=DRAUGHTING_PRE_DEFINED_COLOUR('white');
#156=DRAUGHTING_PRE_DEFINED_COLOUR('blue');
#157=PRESENTATION_LAYER_ASSIGNMENT('1','Layer 1',(#259,#260,#261,#153,#187,
#188,#189,#38,#39));
#158=STYLED_ITEM('',(#167),#259);
#159=STYLED_ITEM('',(#168),#260);
#160=STYLED_ITEM('',(#169),#261);
#161=STYLED_ITEM('',(#170),#153);
#162=STYLED_ITEM('',(#171),#187);
#163=STYLED_ITEM('',(#172),#188);
#164=STYLED_ITEM('',(#173),#189);
#165=STYLED_ITEM('',(#174),#38);
#166=STYLED_ITEM('',(#175),#39);
#167=PRESENTATION_STYLE_ASSIGNMENT((#176));
#168=PRESENTATION_STYLE_ASSIGNMENT((#177));
#169=PRESENTATION_STYLE_ASSIGNMENT((#178));
#170=PRESENTATION_STYLE_ASSIGNMENT((#145));
#171=PRESENTATION_STYLE_ASSIGNMENT((#146));
#172=PRESENTATION_STYLE_ASSIGNMENT((#147));
#173=PRESENTATION_STYLE_ASSIGNMENT((#148));
#174=PRESENTATION_STYLE_ASSIGNMENT((#28));
#175=PRESENTATION_STYLE_ASSIGNMENT((#29));
#176=POINT_STYLE('',#179,POSITIVE_LENGTH_MEASURE(3.),#182);
#177=POINT_STYLE('',#180,POSITIVE_LENGTH_MEASURE(3.),#155);
#178=POINT_STYLE('',#181,POSITIVE_LENGTH_MEASURE(3.),#182);
#179=PRE_DEFINED_POINT_MARKER_SYMBOL('plus');
#180=PRE_DEFINED_POINT_MARKER_SYMBOL('plus');
#181=PRE_DEFINED_POINT_MARKER_SYMBOL('plus');
#182=COLOUR_RGB('Medium Maroon',0.6,0.4,0.4);
#183=COLOUR_RGB('Silver Gray',0.6,0.6,0.6);
#184=COLOUR_RGB('TLS_NOCUT',0.498023956664378,0.498023956664378,0.498023956664378);
#185=COLOUR_RGB('TLS_CUT',0.8,0.8,0.8);
#186=AXIS2_PLACEMENT_3D('',#258,#210,#211);
#187=AXIS2_PLACEMENT_3D('PCS',#278,#212,#213);
#188=AXIS2_PLACEMENT_3D('MCS',#279,#214,#215);
#189=AXIS2_PLACEMENT_3D('CIP',#280,#216,#217);
#190=AXIS2_PLACEMENT_3D('',#281,#218,#219);
#191=AXIS2_PLACEMENT_3D('',#283,#220,#221);
#192=AXIS2_PLACEMENT_3D('',#285,#222,#223);
#193=AXIS2_PLACEMENT_3D('',#286,#224,#225);
#194=AXIS2_PLACEMENT_3D('',#288,#226,#227);
#195=AXIS2_PLACEMENT_3D('',#290,#228,#229);
#196=AXIS2_PLACEMENT_3D('',#291,#230,#231);
#197=AXIS2_PLACEMENT_3D('',#292,#232,#233);
#198=AXIS2_PLACEMENT_3D('',#294,#234,#235);
#199=AXIS2_PLACEMENT_3D('',#295,#236,#237);
#200=AXIS2_PLACEMENT_3D('',#297,#238,#239);
#201=AXIS2_PLACEMENT_3D('',#298,#240,#241);
#202=AXIS2_PLACEMENT_3D('',#299,#242,#243);
#203=AXIS2_PLACEMENT_3D('',#300,#244,#245);
#204=AXIS2_PLACEMENT_3D('',#302,#246,#247);
#205=AXIS2_PLACEMENT_3D('',#303,#248,#249);
#206=AXIS2_PLACEMENT_3D('',#305,#250,#251);
#207=AXIS2_PLACEMENT_3D('',#306,#252,#253);
#208=AXIS2_PLACEMENT_3D('',#308,#254,#255);
#209=AXIS2_PLACEMENT_3D('',#309,#256,#257);
#210=DIRECTION('',(0.,0.,1.));
#211=DIRECTION('',(1.,0.,0.));
#212=DIRECTION('',(0.,0.,1.));
#213=DIRECTION('',(1.,0.,0.));
#214=DIRECTION('',(0.,0.,1.));
#215=DIRECTION('',(1.,0.,0.));
#216=DIRECTION('',(0.,0.,1.));
#217=DIRECTION('',(1.,0.,0.));
#218=DIRECTION('',(0.,0.,-1.));
#219=DIRECTION('',(1.,0.,0.));
#220=DIRECTION('',(0.,0.,-1.));
#221=DIRECTION('',(-1.,0.,0.));
#222=DIRECTION('',(0.,0.,1.));
#223=DIRECTION('',(1.,0.,0.));
#224=DIRECTION('',(0.,0.,1.));
#225=DIRECTION('',(1.,0.,0.));
#226=DIRECTION('',(0.,0.,1.));
#227=DIRECTION('',(1.,0.,0.));
#228=DIRECTION('',(0.,0.,1.));
#229=DIRECTION('',(1.,0.,8.38989264689709E-17));
#230=DIRECTION('',(0.,0.,1.));
#231=DIRECTION('',(1.,0.,0.));
#232=DIRECTION('',(0.,0.,1.));
#233=DIRECTION('',(-1.,0.,0.));
#234=DIRECTION('',(0.,0.,-1.));
#235=DIRECTION('',(-1.,0.,0.));
#236=DIRECTION('',(0.,0.,-1.));
#237=DIRECTION('',(-1.,0.,0.));
#238=DIRECTION('',(0.,0.,1.));
#239=DIRECTION('',(1.,0.,0.));
#240=DIRECTION('',(0.,0.,-1.));
#241=DIRECTION('',(-1.,0.,0.));
#242=DIRECTION('',(0.,0.,-1.));
#243=DIRECTION('',(-1.,0.,0.));
#244=DIRECTION('',(0.,0.,1.));
#245=DIRECTION('',(1.,0.,0.));
#246=DIRECTION('',(0.,0.,1.));
#247=DIRECTION('',(1.,0.,0.));
#248=DIRECTION('',(0.,0.,1.));
#249=DIRECTION('',(1.,0.,0.));
#250=DIRECTION('',(0.,0.,1.));
#251=DIRECTION('',(1.,0.,0.));
#252=DIRECTION('',(0.,0.,-1.));
#253=DIRECTION('',(1.,0.,0.));
#254=DIRECTION('',(0.,0.,1.));
#255=DIRECTION('',(1.,0.,0.));
#256=DIRECTION('',(0.,0.,1.));
#257=DIRECTION('',(1.,0.,0.));
#258=CARTESIAN_POINT('',(0.,0.,0.));
#259=CARTESIAN_POINT('',(0.,0.,-36.));
#260=CARTESIAN_POINT('CRP',(-1.5875,0.,-63.5));
#261=CARTESIAN_POINT('CIP_DCSYS',(0.,0.,-63.5));
#262=CARTESIAN_POINT('',(-1.5875,0.,-63.119));
#263=CARTESIAN_POINT('',(-1.5875,0.,-60.5993333333333));
#264=CARTESIAN_POINT('',(-1.5875,0.,-58.0796666666667));
#265=CARTESIAN_POINT('',(-1.5875,0.,-55.56));
#266=CARTESIAN_POINT('',(-1.05833333333333,0.,-55.56));
#267=CARTESIAN_POINT('',(-0.529166666666667,0.,-55.56));
#268=CARTESIAN_POINT('',(0.,0.,-55.56));
#269=CARTESIAN_POINT('',(0.,0.,-58.2066666666667));
#270=CARTESIAN_POINT('',(0.,0.,-60.8533333333333));
#271=CARTESIAN_POINT('',(0.,0.,-63.5));
#272=CARTESIAN_POINT('',(-0.402166666666667,0.,-63.5));
#273=CARTESIAN_POINT('',(-0.804333333333334,0.,-63.5));
#274=CARTESIAN_POINT('',(-1.2065,0.,-63.5));
#275=CARTESIAN_POINT('',(-1.42968463273585,0.,-63.5));
#276=CARTESIAN_POINT('',(-1.5875,0.,-63.3421846327359));
#277=CARTESIAN_POINT('',(-1.5875,0.,-63.119));
#278=CARTESIAN_POINT('',(0.,0.,0.));
#279=CARTESIAN_POINT('',(0.,0.,-36.));
#280=CARTESIAN_POINT('',(0.,0.,-63.5));
#281=CARTESIAN_POINT('',(0.,0.,-48.5076789221608));
#282=CARTESIAN_POINT('',(1.5875,0.,-48.5076789221608));
#283=CARTESIAN_POINT('',(0.,0.,-55.56));
#284=CARTESIAN_POINT('',(-1.5875,0.,-55.56));
#285=CARTESIAN_POINT('',(0.,0.,0.));
#286=CARTESIAN_POINT('',(0.,0.,-48.0076789221608));
#287=CARTESIAN_POINT('',(1.72147459621556,0.,-48.0076789221608));
#288=CARTESIAN_POINT('',(0.,0.,-45.4900990727141));
#289=CARTESIAN_POINT('',(3.175,0.,-45.4900990727141));
#290=CARTESIAN_POINT('',(0.,0.,-48.2397297297297));
#291=CARTESIAN_POINT('',(0.,0.,-48.5076789221608));
#292=CARTESIAN_POINT('',(0.,0.,0.));
#293=CARTESIAN_POINT('',(-2.775,0.,0.));
#294=CARTESIAN_POINT('',(0.,3.17500000000001,0.));
#295=CARTESIAN_POINT('',(0.,0.,-0.400000000000001));
#296=CARTESIAN_POINT('',(-3.175,0.,-0.400000000000001));
#297=CARTESIAN_POINT('',(0.,0.,20.9080749503476));
#298=CARTESIAN_POINT('',(0.,0.,0.));
#299=CARTESIAN_POINT('',(0.,0.,-55.56));
#300=CARTESIAN_POINT('',(0.,0.,-55.56));
#301=CARTESIAN_POINT('',(1.5875,0.,-55.56));
#302=CARTESIAN_POINT('',(0.,0.,-55.56));
#303=CARTESIAN_POINT('',(0.,0.,-63.119));
#304=CARTESIAN_POINT('',(1.5875,0.,-63.119));
#305=CARTESIAN_POINT('',(0.,0.,0.));
#306=CARTESIAN_POINT('',(0.,0.,-63.5));
#307=CARTESIAN_POINT('',(1.2065,0.,-63.5));
#308=CARTESIAN_POINT('',(0.,0.,-63.5));
#309=CARTESIAN_POINT('',(0.,0.,-63.119));
#310=MECHANICAL_DESIGN_GEOMETRIC_PRESENTATION_REPRESENTATION('',(#158,#159,
#160,#161,#162,#163,#164,#165,#166),#311);
#311=(
GEOMETRIC_REPRESENTATION_CONTEXT(3)
GLOBAL_UNCERTAINTY_ASSIGNED_CONTEXT((#312))
GLOBAL_UNIT_ASSIGNED_CONTEXT((#318,#314,#313))
REPRESENTATION_CONTEXT('TOOL','TOP_LEVEL_ASSEMBLY_PART')
);
#312=UNCERTAINTY_MEASURE_WITH_UNIT(LENGTH_MEASURE(2.E-5),#318,
'DISTANCE_ACCURACY_VALUE','Maximum Tolerance applied to model');
#313=(
NAMED_UNIT(*)
SI_UNIT($,.STERADIAN.)
SOLID_ANGLE_UNIT()
);
#314=(
CONVERSION_BASED_UNIT('DEGREE',#316)
NAMED_UNIT(#315)
PLANE_ANGLE_UNIT()
);
#315=DIMENSIONAL_EXPONENTS(0.,0.,0.,0.,0.,0.,0.);
#316=PLANE_ANGLE_MEASURE_WITH_UNIT(PLANE_ANGLE_MEASURE(0.0174532925),#317);
#317=(
NAMED_UNIT(*)
PLANE_ANGLE_UNIT()
SI_UNIT($,.RADIAN.)
);
#318=(
LENGTH_UNIT()
NAMED_UNIT(*)
SI_UNIT(.MILLI.,.METRE.)
);
ENDSEC;
END-ISO-10303-21;
