ISO-10303-21;
HEADER;
/* Generated by software containing ST-Developer
 * from STEP Tools, Inc. (www.steptools.com) 
 */
/* OPTION: using custom schema-name function */

FILE_DESCRIPTION(
/* description */ (''),
/* implementation_level */ '2;1');

FILE_NAME(
/* name */ 'TOOL.STP',
/* time_stamp */ '2024-06-11T07:28:22+02:00',
/* author */ (''),
/* organization */ ('SMS'),
/* preprocessor_version */ 'ST-DEVELOPER v16.7',
/* originating_system */ 'SIEMENS PLM Software NX 12.0',
/* authorisation */ '');

FILE_SCHEMA (('AUTOMOTIVE_DESIGN { 1 0 10303 214 3 1 1 1 }'));
ENDSEC;

DATA;
#10=CONSTRUCTIVE_GEOMETRY_REPRESENTATION_RELATIONSHIP(
'supplemental geometry','',#26,#11);
#11=CONSTRUCTIVE_GEOMETRY_REPRESENTATION('supplemental geometry',(#359,
#360,#361),#627);
#12=GEOMETRICALLY_BOUNDED_WIREFRAME_SHAPE_REPRESENTATION('Tool-None',(#27),
#627);
#13=SHAPE_REPRESENTATION_RELATIONSHIP('None',
'relationship between Tool-None and Tool-None',#26,#15);
#14=SHAPE_REPRESENTATION_RELATIONSHIP('None',
'relationship between Tool-None and Tool-None',#26,#12);
#15=ADVANCED_BREP_SHAPE_REPRESENTATION('Tool-None',(#38,#39),#627);
#16=SHAPE_DEFINITION_REPRESENTATION(#17,#26);
#17=PRODUCT_DEFINITION_SHAPE('','',#18);
#18=PRODUCT_DEFINITION(' ','',#20,#19);
#19=PRODUCT_DEFINITION_CONTEXT('part definition',#25,'design');
#20=PRODUCT_DEFINITION_FORMATION_WITH_SPECIFIED_SOURCE(' ',' ',#22,
 .NOT_KNOWN.);
#21=PRODUCT_RELATED_PRODUCT_CATEGORY('part','',(#22));
#22=PRODUCT('Tool','Tool',' ',(#23));
#23=PRODUCT_CONTEXT(' ',#25,'mechanical');
#24=APPLICATION_PROTOCOL_DEFINITION('international standard',
'automotive_design',2010,#25);
#25=APPLICATION_CONTEXT(
'core data for automotive mechanical design processes');
#26=SHAPE_REPRESENTATION('Tool-None',(#358),#627);
#27=GEOMETRIC_CURVE_SET('None',(#500,#501,#502,#322));
#28=SURFACE_STYLE_USAGE(.BOTH.,#30);
#29=SURFACE_STYLE_USAGE(.BOTH.,#31);
#30=SURFACE_SIDE_STYLE('',(#32));
#31=SURFACE_SIDE_STYLE('',(#33));
#32=SURFACE_STYLE_FILL_AREA(#34);
#33=SURFACE_STYLE_FILL_AREA(#35);
#34=FILL_AREA_STYLE('',(#36));
#35=FILL_AREA_STYLE('',(#37));
#36=FILL_AREA_STYLE_COLOUR('',#356);
#37=FILL_AREA_STYLE_COLOUR('',#357);
#38=MANIFOLD_SOLID_BREP('NOCUT',#40);
#39=MANIFOLD_SOLID_BREP('CUT',#41);
#40=CLOSED_SHELL('',(#100,#101,#102,#103,#104,#105,#106,#107,#108,#109,
#110,#111,#112,#113,#114,#115));
#41=CLOSED_SHELL('',(#116,#117,#118,#119,#120));
#42=LINE('',#542,#54);
#43=LINE('',#544,#55);
#44=LINE('',#553,#56);
#45=LINE('',#558,#57);
#46=LINE('',#560,#58);
#47=LINE('',#569,#59);
#48=LINE('',#574,#60);
#49=LINE('',#576,#61);
#50=LINE('',#585,#62);
#51=LINE('',#603,#63);
#52=LINE('',#605,#64);
#53=LINE('',#606,#65);
#54=VECTOR('',#429,1.);
#55=VECTOR('',#432,1.);
#56=VECTOR('',#433,1.);
#57=VECTOR('',#438,1.);
#58=VECTOR('',#441,1.);
#59=VECTOR('',#442,1.);
#60=VECTOR('',#447,1.);
#61=VECTOR('',#450,1.);
#62=VECTOR('',#451,1.);
#63=VECTOR('',#466,1.);
#64=VECTOR('',#469,1.);
#65=VECTOR('',#470,1.);
#66=ELLIPSE('',#371,4.20869956162233,2.976);
#67=ELLIPSE('',#374,4.20869956162233,2.976);
#68=ELLIPSE('',#377,4.20869956162233,2.976);
#69=ELLIPSE('',#385,4.20869956162233,2.976);
#70=PLANE('',#370);
#71=PLANE('',#372);
#72=PLANE('',#373);
#73=PLANE('',#375);
#74=PLANE('',#376);
#75=PLANE('',#378);
#76=PLANE('',#379);
#77=PLANE('',#386);
#78=PLANE('',#387);
#79=PLANE('',#391);
#80=PLANE('',#393);
#81=PLANE('',#399);
#82=FACE_OUTER_BOUND('',#148,.T.);
#83=FACE_OUTER_BOUND('',#149,.T.);
#84=FACE_OUTER_BOUND('',#150,.T.);
#85=FACE_OUTER_BOUND('',#151,.T.);
#86=FACE_OUTER_BOUND('',#152,.T.);
#87=FACE_OUTER_BOUND('',#153,.T.);
#88=FACE_OUTER_BOUND('',#154,.T.);
#89=FACE_OUTER_BOUND('',#157,.T.);
#90=FACE_OUTER_BOUND('',#158,.T.);
#91=FACE_OUTER_BOUND('',#163,.T.);
#92=FACE_OUTER_BOUND('',#164,.T.);
#93=FACE_OUTER_BOUND('',#169,.T.);
#94=TOROIDAL_SURFACE('',#368,4.2,1.1);
#95=CONICAL_SURFACE('',#367,3.1,29.9999999999999);
#96=CONICAL_SURFACE('',#384,1.776,45.);
#97=CONICAL_SURFACE('',#390,4.4,44.9999999999999);
#98=CONICAL_SURFACE('',#397,3.48014889033056,5.98987403588063);
#99=CONICAL_SURFACE('',#400,4.40847083063018,45.);
#100=ADVANCED_FACE('',(#124,#125),#121,.T.);
#101=ADVANCED_FACE('',(#126,#127),#95,.T.);
#102=ADVANCED_FACE('',(#128,#129),#94,.F.);
#103=ADVANCED_FACE('',(#82),#70,.F.);
#104=ADVANCED_FACE('',(#83),#71,.T.);
#105=ADVANCED_FACE('',(#84),#72,.T.);
#106=ADVANCED_FACE('',(#85),#73,.T.);
#107=ADVANCED_FACE('',(#86),#74,.T.);
#108=ADVANCED_FACE('',(#87),#75,.T.);
#109=ADVANCED_FACE('',(#88),#76,.T.);
#110=ADVANCED_FACE('',(#130,#131),#96,.T.);
#111=ADVANCED_FACE('',(#89),#77,.T.);
#112=ADVANCED_FACE('',(#90),#78,.T.);
#113=ADVANCED_FACE('',(#132,#133),#122,.T.);
#114=ADVANCED_FACE('',(#134,#135),#97,.T.);
#115=ADVANCED_FACE('',(#91),#79,.T.);
#116=ADVANCED_FACE('',(#92),#80,.T.);
#117=ADVANCED_FACE('',(#136,#137),#123,.T.);
#118=ADVANCED_FACE('',(#138,#139),#98,.T.);
#119=ADVANCED_FACE('',(#93),#81,.F.);
#120=ADVANCED_FACE('',(#140,#141),#99,.T.);
#121=CYLINDRICAL_SURFACE('',#364,3.1);
#122=CYLINDRICAL_SURFACE('',#389,2.976);
#123=CYLINDRICAL_SURFACE('',#395,4.0834708306302);
#124=FACE_BOUND('',#142,.T.);
#125=FACE_BOUND('',#143,.T.);
#126=FACE_BOUND('',#144,.T.);
#127=FACE_BOUND('',#145,.T.);
#128=FACE_BOUND('',#146,.T.);
#129=FACE_BOUND('',#147,.T.);
#130=FACE_BOUND('',#155,.T.);
#131=FACE_BOUND('',#156,.T.);
#132=FACE_BOUND('',#159,.T.);
#133=FACE_BOUND('',#160,.T.);
#134=FACE_BOUND('',#161,.T.);
#135=FACE_BOUND('',#162,.T.);
#136=FACE_BOUND('',#165,.T.);
#137=FACE_BOUND('',#166,.T.);
#138=FACE_BOUND('',#167,.T.);
#139=FACE_BOUND('',#168,.T.);
#140=FACE_BOUND('',#170,.T.);
#141=FACE_BOUND('',#171,.T.);
#142=EDGE_LOOP('',(#172));
#143=EDGE_LOOP('',(#173));
#144=EDGE_LOOP('',(#174));
#145=EDGE_LOOP('',(#175));
#146=EDGE_LOOP('',(#176));
#147=EDGE_LOOP('',(#177));
#148=EDGE_LOOP('',(#178));
#149=EDGE_LOOP('',(#179,#180));
#150=EDGE_LOOP('',(#181,#182,#183,#184));
#151=EDGE_LOOP('',(#185,#186));
#152=EDGE_LOOP('',(#187,#188,#189,#190));
#153=EDGE_LOOP('',(#191,#192));
#154=EDGE_LOOP('',(#193,#194,#195,#196));
#155=EDGE_LOOP('',(#197));
#156=EDGE_LOOP('',(#198,#199,#200,#201,#202,#203,#204,#205));
#157=EDGE_LOOP('',(#206,#207));
#158=EDGE_LOOP('',(#208,#209,#210,#211));
#159=EDGE_LOOP('',(#212));
#160=EDGE_LOOP('',(#213,#214,#215,#216,#217,#218,#219,#220,#221,#222,#223,
#224,#225,#226,#227,#228));
#161=EDGE_LOOP('',(#229));
#162=EDGE_LOOP('',(#230));
#163=EDGE_LOOP('',(#231));
#164=EDGE_LOOP('',(#232));
#165=EDGE_LOOP('',(#233));
#166=EDGE_LOOP('',(#234));
#167=EDGE_LOOP('',(#235));
#168=EDGE_LOOP('',(#236));
#169=EDGE_LOOP('',(#237));
#170=EDGE_LOOP('',(#238));
#171=EDGE_LOOP('',(#239));
#172=ORIENTED_EDGE('',*,*,#266,.T.);
#173=ORIENTED_EDGE('',*,*,#267,.T.);
#174=ORIENTED_EDGE('',*,*,#268,.T.);
#175=ORIENTED_EDGE('',*,*,#269,.F.);
#176=ORIENTED_EDGE('',*,*,#266,.F.);
#177=ORIENTED_EDGE('',*,*,#268,.F.);
#178=ORIENTED_EDGE('',*,*,#270,.T.);
#179=ORIENTED_EDGE('',*,*,#271,.T.);
#180=ORIENTED_EDGE('',*,*,#272,.T.);
#181=ORIENTED_EDGE('',*,*,#273,.T.);
#182=ORIENTED_EDGE('',*,*,#274,.F.);
#183=ORIENTED_EDGE('',*,*,#275,.T.);
#184=ORIENTED_EDGE('',*,*,#272,.F.);
#185=ORIENTED_EDGE('',*,*,#276,.T.);
#186=ORIENTED_EDGE('',*,*,#277,.T.);
#187=ORIENTED_EDGE('',*,*,#278,.T.);
#188=ORIENTED_EDGE('',*,*,#279,.F.);
#189=ORIENTED_EDGE('',*,*,#280,.T.);
#190=ORIENTED_EDGE('',*,*,#277,.F.);
#191=ORIENTED_EDGE('',*,*,#281,.T.);
#192=ORIENTED_EDGE('',*,*,#282,.T.);
#193=ORIENTED_EDGE('',*,*,#283,.T.);
#194=ORIENTED_EDGE('',*,*,#284,.F.);
#195=ORIENTED_EDGE('',*,*,#285,.T.);
#196=ORIENTED_EDGE('',*,*,#282,.F.);
#197=ORIENTED_EDGE('',*,*,#270,.F.);
#198=ORIENTED_EDGE('',*,*,#286,.T.);
#199=ORIENTED_EDGE('',*,*,#287,.T.);
#200=ORIENTED_EDGE('',*,*,#288,.T.);
#201=ORIENTED_EDGE('',*,*,#274,.T.);
#202=ORIENTED_EDGE('',*,*,#289,.T.);
#203=ORIENTED_EDGE('',*,*,#279,.T.);
#204=ORIENTED_EDGE('',*,*,#290,.T.);
#205=ORIENTED_EDGE('',*,*,#284,.T.);
#206=ORIENTED_EDGE('',*,*,#291,.T.);
#207=ORIENTED_EDGE('',*,*,#292,.T.);
#208=ORIENTED_EDGE('',*,*,#293,.T.);
#209=ORIENTED_EDGE('',*,*,#287,.F.);
#210=ORIENTED_EDGE('',*,*,#294,.T.);
#211=ORIENTED_EDGE('',*,*,#292,.F.);
#212=ORIENTED_EDGE('',*,*,#295,.F.);
#213=ORIENTED_EDGE('',*,*,#293,.F.);
#214=ORIENTED_EDGE('',*,*,#291,.F.);
#215=ORIENTED_EDGE('',*,*,#294,.F.);
#216=ORIENTED_EDGE('',*,*,#286,.F.);
#217=ORIENTED_EDGE('',*,*,#283,.F.);
#218=ORIENTED_EDGE('',*,*,#281,.F.);
#219=ORIENTED_EDGE('',*,*,#285,.F.);
#220=ORIENTED_EDGE('',*,*,#290,.F.);
#221=ORIENTED_EDGE('',*,*,#278,.F.);
#222=ORIENTED_EDGE('',*,*,#276,.F.);
#223=ORIENTED_EDGE('',*,*,#280,.F.);
#224=ORIENTED_EDGE('',*,*,#289,.F.);
#225=ORIENTED_EDGE('',*,*,#273,.F.);
#226=ORIENTED_EDGE('',*,*,#271,.F.);
#227=ORIENTED_EDGE('',*,*,#275,.F.);
#228=ORIENTED_EDGE('',*,*,#288,.F.);
#229=ORIENTED_EDGE('',*,*,#295,.T.);
#230=ORIENTED_EDGE('',*,*,#267,.F.);
#231=ORIENTED_EDGE('',*,*,#269,.T.);
#232=ORIENTED_EDGE('',*,*,#296,.F.);
#233=ORIENTED_EDGE('',*,*,#297,.F.);
#234=ORIENTED_EDGE('',*,*,#296,.T.);
#235=ORIENTED_EDGE('',*,*,#297,.T.);
#236=ORIENTED_EDGE('',*,*,#298,.T.);
#237=ORIENTED_EDGE('',*,*,#299,.T.);
#238=ORIENTED_EDGE('',*,*,#298,.F.);
#239=ORIENTED_EDGE('',*,*,#299,.F.);
#240=VERTEX_POINT('',#526);
#241=VERTEX_POINT('',#528);
#242=VERTEX_POINT('',#531);
#243=VERTEX_POINT('',#533);
#244=VERTEX_POINT('',#537);
#245=VERTEX_POINT('',#540);
#246=VERTEX_POINT('',#541);
#247=VERTEX_POINT('',#545);
#248=VERTEX_POINT('',#552);
#249=VERTEX_POINT('',#556);
#250=VERTEX_POINT('',#557);
#251=VERTEX_POINT('',#561);
#252=VERTEX_POINT('',#568);
#253=VERTEX_POINT('',#572);
#254=VERTEX_POINT('',#573);
#255=VERTEX_POINT('',#577);
#256=VERTEX_POINT('',#584);
#257=VERTEX_POINT('',#588);
#258=VERTEX_POINT('',#595);
#259=VERTEX_POINT('',#601);
#260=VERTEX_POINT('',#602);
#261=VERTEX_POINT('',#609);
#262=VERTEX_POINT('',#614);
#263=VERTEX_POINT('',#617);
#264=VERTEX_POINT('',#620);
#265=VERTEX_POINT('',#623);
#266=EDGE_CURVE('',#240,#240,#300,.T.);
#267=EDGE_CURVE('',#241,#241,#301,.T.);
#268=EDGE_CURVE('',#242,#242,#302,.T.);
#269=EDGE_CURVE('',#243,#243,#303,.T.);
#270=EDGE_CURVE('',#244,#244,#304,.T.);
#271=EDGE_CURVE('',#245,#246,#66,.T.);
#272=EDGE_CURVE('',#246,#245,#42,.T.);
#273=EDGE_CURVE('',#246,#247,#43,.T.);
#274=EDGE_CURVE('',#248,#247,#323,.T.);
#275=EDGE_CURVE('',#248,#245,#44,.T.);
#276=EDGE_CURVE('',#249,#250,#67,.T.);
#277=EDGE_CURVE('',#250,#249,#45,.T.);
#278=EDGE_CURVE('',#250,#251,#46,.T.);
#279=EDGE_CURVE('',#252,#251,#324,.T.);
#280=EDGE_CURVE('',#252,#249,#47,.T.);
#281=EDGE_CURVE('',#253,#254,#68,.T.);
#282=EDGE_CURVE('',#254,#253,#48,.T.);
#283=EDGE_CURVE('',#254,#255,#49,.T.);
#284=EDGE_CURVE('',#256,#255,#325,.T.);
#285=EDGE_CURVE('',#256,#253,#50,.T.);
#286=EDGE_CURVE('',#255,#257,#305,.T.);
#287=EDGE_CURVE('',#257,#258,#326,.T.);
#288=EDGE_CURVE('',#258,#248,#306,.T.);
#289=EDGE_CURVE('',#247,#252,#307,.T.);
#290=EDGE_CURVE('',#251,#256,#308,.T.);
#291=EDGE_CURVE('',#259,#260,#69,.T.);
#292=EDGE_CURVE('',#260,#259,#51,.T.);
#293=EDGE_CURVE('',#260,#258,#52,.T.);
#294=EDGE_CURVE('',#257,#259,#53,.T.);
#295=EDGE_CURVE('',#261,#261,#309,.T.);
#296=EDGE_CURVE('',#262,#262,#310,.T.);
#297=EDGE_CURVE('',#263,#263,#311,.T.);
#298=EDGE_CURVE('',#264,#264,#312,.T.);
#299=EDGE_CURVE('',#265,#265,#313,.T.);
#300=CIRCLE('',#362,3.1);
#301=CIRCLE('',#363,3.1);
#302=CIRCLE('',#365,3.24737205583712);
#303=CIRCLE('',#366,4.0834708306302);
#304=CIRCLE('',#369,1.776);
#305=CIRCLE('',#380,2.976);
#306=CIRCLE('',#381,2.976);
#307=CIRCLE('',#382,2.976);
#308=CIRCLE('',#383,2.976);
#309=CIRCLE('',#388,2.976);
#310=CIRCLE('',#392,4.0834708306302);
#311=CIRCLE('',#394,4.0834708306302);
#312=CIRCLE('',#396,3.70465318826293);
#313=CIRCLE('',#398,3.46499999999999);
#314=CURVE_STYLE('',#318,POSITIVE_LENGTH_MEASURE(0.18),#328);
#315=CURVE_STYLE('',#319,POSITIVE_LENGTH_MEASURE(0.13),#355);
#316=CURVE_STYLE('',#320,POSITIVE_LENGTH_MEASURE(0.18),#354);
#317=CURVE_STYLE('',#321,POSITIVE_LENGTH_MEASURE(0.18),#354);
#318=DRAUGHTING_PRE_DEFINED_CURVE_FONT('continuous');
#319=DRAUGHTING_PRE_DEFINED_CURVE_FONT('continuous');
#320=DRAUGHTING_PRE_DEFINED_CURVE_FONT('continuous');
#321=DRAUGHTING_PRE_DEFINED_CURVE_FONT('continuous');
#322=B_SPLINE_CURVE_WITH_KNOTS('CUTTING PART LINE',3,(#503,#504,#505,#506,
#507,#508,#509,#510,#511,#512,#513,#514,#515,#516,#517,#518,#519,#520,#521),
 .UNSPECIFIED.,.T.,.F.,(4,3,3,3,3,3,4),(0.,0.324841424878944,0.417927774567625,
0.830533373885267,0.909521130879868,0.917247131725646,1.),.UNSPECIFIED.);
#323=B_SPLINE_CURVE_WITH_KNOTS('',3,(#546,#547,#548,#549,#550,#551),
 .UNSPECIFIED.,.F.,.F.,(4,2,4),(0.,0.5,1.),.UNSPECIFIED.);
#324=B_SPLINE_CURVE_WITH_KNOTS('',3,(#562,#563,#564,#565,#566,#567),
 .UNSPECIFIED.,.F.,.F.,(4,2,4),(0.,0.5,1.),.UNSPECIFIED.);
#325=B_SPLINE_CURVE_WITH_KNOTS('',3,(#578,#579,#580,#581,#582,#583),
 .UNSPECIFIED.,.F.,.F.,(4,2,4),(0.,0.5,1.),.UNSPECIFIED.);
#326=B_SPLINE_CURVE_WITH_KNOTS('',3,(#589,#590,#591,#592,#593,#594),
 .UNSPECIFIED.,.F.,.F.,(4,2,4),(0.,0.5,1.),.UNSPECIFIED.);
#327=DRAUGHTING_PRE_DEFINED_COLOUR('white');
#328=DRAUGHTING_PRE_DEFINED_COLOUR('blue');
#329=PRESENTATION_LAYER_ASSIGNMENT('1','Layer 1',(#500,#501,#502,#322,#359,
#360,#361,#38,#39));
#330=STYLED_ITEM('',(#339),#500);
#331=STYLED_ITEM('',(#340),#501);
#332=STYLED_ITEM('',(#341),#502);
#333=STYLED_ITEM('',(#342),#322);
#334=STYLED_ITEM('',(#343),#359);
#335=STYLED_ITEM('',(#344),#360);
#336=STYLED_ITEM('',(#345),#361);
#337=STYLED_ITEM('',(#346),#38);
#338=STYLED_ITEM('',(#347),#39);
#339=PRESENTATION_STYLE_ASSIGNMENT((#348));
#340=PRESENTATION_STYLE_ASSIGNMENT((#349));
#341=PRESENTATION_STYLE_ASSIGNMENT((#350));
#342=PRESENTATION_STYLE_ASSIGNMENT((#314));
#343=PRESENTATION_STYLE_ASSIGNMENT((#315));
#344=PRESENTATION_STYLE_ASSIGNMENT((#316));
#345=PRESENTATION_STYLE_ASSIGNMENT((#317));
#346=PRESENTATION_STYLE_ASSIGNMENT((#28));
#347=PRESENTATION_STYLE_ASSIGNMENT((#29));
#348=POINT_STYLE('',#351,POSITIVE_LENGTH_MEASURE(3.),#354);
#349=POINT_STYLE('',#352,POSITIVE_LENGTH_MEASURE(3.),#327);
#350=POINT_STYLE('',#353,POSITIVE_LENGTH_MEASURE(3.),#354);
#351=PRE_DEFINED_POINT_MARKER_SYMBOL('plus');
#352=PRE_DEFINED_POINT_MARKER_SYMBOL('plus');
#353=PRE_DEFINED_POINT_MARKER_SYMBOL('plus');
#354=COLOUR_RGB('Medium Maroon',0.6,0.4,0.4);
#355=COLOUR_RGB('Silver Gray',0.6,0.6,0.6);
#356=COLOUR_RGB('TLS_NOCUT',0.498023956664378,0.498023956664378,0.498023956664378);
#357=COLOUR_RGB('TLS_CUT',0.8,0.8,0.8);
#358=AXIS2_PLACEMENT_3D('',#499,#401,#402);
#359=AXIS2_PLACEMENT_3D('PCS',#522,#403,#404);
#360=AXIS2_PLACEMENT_3D('MCS',#523,#405,#406);
#361=AXIS2_PLACEMENT_3D('CIP',#524,#407,#408);
#362=AXIS2_PLACEMENT_3D('',#525,#409,#410);
#363=AXIS2_PLACEMENT_3D('',#527,#411,#412);
#364=AXIS2_PLACEMENT_3D('',#529,#413,#414);
#365=AXIS2_PLACEMENT_3D('',#530,#415,#416);
#366=AXIS2_PLACEMENT_3D('',#532,#417,#418);
#367=AXIS2_PLACEMENT_3D('',#534,#419,#420);
#368=AXIS2_PLACEMENT_3D('',#535,#421,#422);
#369=AXIS2_PLACEMENT_3D('',#536,#423,#424);
#370=AXIS2_PLACEMENT_3D('',#538,#425,#426);
#371=AXIS2_PLACEMENT_3D('',#539,#427,#428);
#372=AXIS2_PLACEMENT_3D('',#543,#430,#431);
#373=AXIS2_PLACEMENT_3D('',#554,#434,#435);
#374=AXIS2_PLACEMENT_3D('',#555,#436,#437);
#375=AXIS2_PLACEMENT_3D('',#559,#439,#440);
#376=AXIS2_PLACEMENT_3D('',#570,#443,#444);
#377=AXIS2_PLACEMENT_3D('',#571,#445,#446);
#378=AXIS2_PLACEMENT_3D('',#575,#448,#449);
#379=AXIS2_PLACEMENT_3D('',#586,#452,#453);
#380=AXIS2_PLACEMENT_3D('',#587,#454,#455);
#381=AXIS2_PLACEMENT_3D('',#596,#456,#457);
#382=AXIS2_PLACEMENT_3D('',#597,#458,#459);
#383=AXIS2_PLACEMENT_3D('',#598,#460,#461);
#384=AXIS2_PLACEMENT_3D('',#599,#462,#463);
#385=AXIS2_PLACEMENT_3D('',#600,#464,#465);
#386=AXIS2_PLACEMENT_3D('',#604,#467,#468);
#387=AXIS2_PLACEMENT_3D('',#607,#471,#472);
#388=AXIS2_PLACEMENT_3D('',#608,#473,#474);
#389=AXIS2_PLACEMENT_3D('',#610,#475,#476);
#390=AXIS2_PLACEMENT_3D('',#611,#477,#478);
#391=AXIS2_PLACEMENT_3D('',#612,#479,#480);
#392=AXIS2_PLACEMENT_3D('',#613,#481,#482);
#393=AXIS2_PLACEMENT_3D('',#615,#483,#484);
#394=AXIS2_PLACEMENT_3D('',#616,#485,#486);
#395=AXIS2_PLACEMENT_3D('',#618,#487,#488);
#396=AXIS2_PLACEMENT_3D('',#619,#489,#490);
#397=AXIS2_PLACEMENT_3D('',#621,#491,#492);
#398=AXIS2_PLACEMENT_3D('',#622,#493,#494);
#399=AXIS2_PLACEMENT_3D('',#624,#495,#496);
#400=AXIS2_PLACEMENT_3D('',#625,#497,#498);
#401=DIRECTION('',(0.,0.,1.));
#402=DIRECTION('',(1.,0.,0.));
#403=DIRECTION('',(0.,0.,1.));
#404=DIRECTION('',(1.,0.,0.));
#405=DIRECTION('',(0.,0.,1.));
#406=DIRECTION('',(1.,0.,0.));
#407=DIRECTION('',(0.,0.,1.));
#408=DIRECTION('',(1.,0.,0.));
#409=DIRECTION('',(-8.20461480788115E-17,0.,1.));
#410=DIRECTION('',(-1.,0.,0.));
#411=DIRECTION('',(0.,0.,-1.));
#412=DIRECTION('',(-1.,0.,0.));
#413=DIRECTION('',(8.20461480788115E-17,0.,-1.));
#414=DIRECTION('',(-1.,0.,0.));
#415=DIRECTION('',(8.20461480788115E-17,0.,-1.));
#416=DIRECTION('',(-1.,0.,0.));
#417=DIRECTION('',(0.,0.,-1.));
#418=DIRECTION('',(-1.,0.,0.));
#419=DIRECTION('',(8.20461480788115E-17,0.,-1.));
#420=DIRECTION('',(-1.,0.,8.36803080394175E-17));
#421=DIRECTION('',(8.20461480788115E-17,0.,-1.));
#422=DIRECTION('',(-1.,0.,0.));
#423=DIRECTION('',(0.,0.,1.));
#424=DIRECTION('',(1.,0.,0.));
#425=DIRECTION('',(1.72136677258719E-16,0.,-1.));
#426=DIRECTION('',(-1.,0.,-1.72136677258719E-16));
#427=DIRECTION('',(8.28344032153662E-16,0.707106781186547,0.707106781186548));
#428=DIRECTION('',(-8.28344032153662E-16,-0.707106781186548,0.707106781186547));
#429=DIRECTION('',(1.,-1.17145536458252E-15,0.));
#430=DIRECTION('',(8.28344032153662E-16,0.707106781186547,0.707106781186548));
#431=DIRECTION('',(8.28330459778925E-16,0.707106781186548,-0.707106781186547));
#432=DIRECTION('',(0.,0.,1.));
#433=DIRECTION('',(0.,0.,-1.));
#434=DIRECTION('',(1.17145536458252E-15,1.,0.));
#435=DIRECTION('',(0.,0.,-1.));
#436=DIRECTION('',(-0.707106781186547,1.65668806430732E-15,0.707106781186548));
#437=DIRECTION('',(0.707106781186548,-1.65668806430732E-15,0.707106781186547));
#438=DIRECTION('',(2.34291072916505E-15,1.,0.));
#439=DIRECTION('',(-0.707106781186547,1.65668806430732E-15,0.707106781186548));
#440=DIRECTION('',(-0.707106781186548,1.65666091955785E-15,-0.707106781186547));
#441=DIRECTION('',(0.,0.,1.));
#442=DIRECTION('',(0.,0.,-1.));
#443=DIRECTION('',(-1.,2.34291072916505E-15,0.));
#444=DIRECTION('',(0.,0.,-1.));
#445=DIRECTION('',(-2.64204134232936E-15,-0.707106781186547,0.707106781186548));
#446=DIRECTION('',(2.64204134232936E-15,0.707106781186548,0.707106781186547));
#447=DIRECTION('',(-1.,3.7364106986726E-15,0.));
#448=DIRECTION('',(-2.64204134232936E-15,-0.707106781186547,0.707106781186548));
#449=DIRECTION('',(-2.64198385391268E-15,-0.707106781186548,-0.707106781186547));
#450=DIRECTION('',(0.,0.,1.));
#451=DIRECTION('',(0.,0.,-1.));
#452=DIRECTION('',(-3.7364106986726E-15,-1.,0.));
#453=DIRECTION('',(0.,0.,-1.));
#454=DIRECTION('',(0.,0.,1.));
#455=DIRECTION('',(-1.,0.,0.));
#456=DIRECTION('',(0.,0.,1.));
#457=DIRECTION('',(-1.,0.,0.));
#458=DIRECTION('',(0.,0.,1.));
#459=DIRECTION('',(-1.,0.,0.));
#460=DIRECTION('',(0.,0.,1.));
#461=DIRECTION('',(-1.,0.,0.));
#462=DIRECTION('',(0.,0.,-1.));
#463=DIRECTION('',(-1.,0.,0.));
#464=DIRECTION('',(0.707106781186547,0.,0.707106781186548));
#465=DIRECTION('',(-0.707106781186548,0.,0.707106781186547));
#466=DIRECTION('',(0.,-1.,0.));
#467=DIRECTION('',(0.707106781186547,0.,0.707106781186548));
#468=DIRECTION('',(0.707106781186548,0.,-0.707106781186547));
#469=DIRECTION('',(0.,0.,1.));
#470=DIRECTION('',(0.,0.,-1.));
#471=DIRECTION('',(1.,0.,0.));
#472=DIRECTION('',(0.,0.,-1.));
#473=DIRECTION('',(0.,0.,-1.));
#474=DIRECTION('',(1.,0.,0.));
#475=DIRECTION('',(0.,0.,1.));
#476=DIRECTION('',(1.,0.,0.));
#477=DIRECTION('',(0.,0.,-1.));
#478=DIRECTION('',(-1.,0.,-3.45424825961134E-18));
#479=DIRECTION('',(0.,0.,-1.));
#480=DIRECTION('',(-1.,0.,0.));
#481=DIRECTION('',(0.,0.,-1.));
#482=DIRECTION('',(1.,0.,0.));
#483=DIRECTION('',(0.,0.,1.));
#484=DIRECTION('',(1.,0.,0.));
#485=DIRECTION('',(0.,0.,-1.));
#486=DIRECTION('',(1.,0.,0.));
#487=DIRECTION('',(0.,0.,1.));
#488=DIRECTION('',(1.,0.,0.));
#489=DIRECTION('',(0.,0.,1.));
#490=DIRECTION('',(-1.,0.,0.));
#491=DIRECTION('',(0.,0.,1.));
#492=DIRECTION('',(1.,0.,-5.12068547352924E-16));
#493=DIRECTION('',(9.06853497640132E-17,0.,-1.));
#494=DIRECTION('',(1.,0.,0.));
#495=DIRECTION('',(-9.06853497640132E-17,0.,1.));
#496=DIRECTION('',(1.,0.,9.71445146547012E-17));
#497=DIRECTION('',(-4.40717511295474E-16,0.,1.));
#498=DIRECTION('',(1.,0.,4.83590677876125E-16));
#499=CARTESIAN_POINT('',(0.,0.,0.));
#500=CARTESIAN_POINT('',(0.,0.,-23.));
#501=CARTESIAN_POINT('CRP',(-4.0834708306302,0.,-70.));
#502=CARTESIAN_POINT('CIP_DCSYS',(0.,0.,-70.));
#503=CARTESIAN_POINT('',(-4.0834708306302,0.,-66.25));
#504=CARTESIAN_POINT('',(-4.0834708306302,0.,-61.5));
#505=CARTESIAN_POINT('',(-4.0834708306302,0.,-56.75));
#506=CARTESIAN_POINT('',(-4.0834708306302,0.,-52.));
#507=CARTESIAN_POINT('',(-2.7223138870868,0.,-52.));
#508=CARTESIAN_POINT('',(-1.3611569435434,0.,-52.));
#509=CARTESIAN_POINT('',(0.,0.,-52.));
#510=CARTESIAN_POINT('',(0.,0.,-58.0333333333334));
#511=CARTESIAN_POINT('',(0.,0.,-64.0666666666667));
#512=CARTESIAN_POINT('',(0.,0.,-70.1));
#513=CARTESIAN_POINT('',(-1.15499999999999,0.,-70.1));
#514=CARTESIAN_POINT('',(-2.30999999999998,0.,-70.1));
#515=CARTESIAN_POINT('',(-3.46499999999997,0.,-70.1));
#516=CARTESIAN_POINT('',(-3.54488439608762,0.,-70.0201156039124));
#517=CARTESIAN_POINT('',(-3.62476879217526,0.,-69.9402312078247));
#518=CARTESIAN_POINT('',(-3.70465318826292,0.,-69.8603468117371));
#519=CARTESIAN_POINT('',(-3.83092573571869,0.,-68.6568978744914));
#520=CARTESIAN_POINT('',(-3.95719828317444,0.,-67.4534489372457));
#521=CARTESIAN_POINT('',(-4.0834708306302,0.,-66.25));
#522=CARTESIAN_POINT('',(0.,0.,0.));
#523=CARTESIAN_POINT('',(0.,0.,-23.));
#524=CARTESIAN_POINT('',(0.,0.,-70.));
#525=CARTESIAN_POINT('',(5.16512873093591E-15,0.,-50.0018344419123));
#526=CARTESIAN_POINT('',(-3.09999999999999,0.,-50.0018344419123));
#527=CARTESIAN_POINT('',(0.,0.,-8.924));
#528=CARTESIAN_POINT('',(-3.1,0.,-8.924));
#529=CARTESIAN_POINT('',(5.10702591327572E-15,0.,-49.2936620411267));
#530=CARTESIAN_POINT('',(5.21025411237925E-15,0.,-50.5518344419123));
#531=CARTESIAN_POINT('',(-3.24737205583711,0.,-50.5518344419123));
#532=CARTESIAN_POINT('',(0.,0.,-52.));
#533=CARTESIAN_POINT('',(-4.0834708306302,0.,-52.));
#534=CARTESIAN_POINT('',(5.18931134996769E-15,0.,-50.2965785535865));
#535=CARTESIAN_POINT('',(5.16512873093591E-15,0.,-50.0018344419123));
#536=CARTESIAN_POINT('',(0.,0.,0.));
#537=CARTESIAN_POINT('',(1.776,0.,0.));
#538=CARTESIAN_POINT('',(3.40000000000001,0.,2.92632351339823E-16));
#539=CARTESIAN_POINT('',(0.,0.,-5.5));
#540=CARTESIAN_POINT('',(1.61448939296609,2.5,-8.));
#541=CARTESIAN_POINT('',(-1.61448939296608,2.5,-8.));
#542=CARTESIAN_POINT('',(7.5,2.49999999999999,-8.));
#543=CARTESIAN_POINT('',(7.5,2.49999999999999,-8.));
#544=CARTESIAN_POINT('',(-1.61448939296608,2.5,20.9080749503476));
#545=CARTESIAN_POINT('',(-1.61448939296608,2.5,-1.2));
#546=CARTESIAN_POINT('',(1.61448939296609,2.5,-1.2));
#547=CARTESIAN_POINT('',(1.11477845115345,2.5,-0.928905236859675));
#548=CARTESIAN_POINT('',(0.56458453126537,2.5,-0.724001827911763));
#549=CARTESIAN_POINT('',(-0.564568343035228,2.5,-0.723998172114445));
#550=CARTESIAN_POINT('',(-1.11439824619394,2.5,-0.928698974469129));
#551=CARTESIAN_POINT('',(-1.61448939296608,2.5,-1.2));
#552=CARTESIAN_POINT('',(1.61448939296609,2.5,-1.2));
#553=CARTESIAN_POINT('',(1.61448939296609,2.5,20.9080749503476));
#554=CARTESIAN_POINT('',(7.5,2.49999999999999,10.));
#555=CARTESIAN_POINT('',(0.,0.,-5.5));
#556=CARTESIAN_POINT('',(-2.5,1.61448939296609,-8.));
#557=CARTESIAN_POINT('',(-2.5,-1.61448939296608,-8.));
#558=CARTESIAN_POINT('',(-2.49999999999998,7.50000000000001,-8.));
#559=CARTESIAN_POINT('',(-2.49999999999998,7.50000000000001,-8.));
#560=CARTESIAN_POINT('',(-2.5,-1.61448939296608,20.9080749503476));
#561=CARTESIAN_POINT('',(-2.5,-1.61448939296608,-1.2));
#562=CARTESIAN_POINT('',(-2.5,1.61448939296609,-1.2));
#563=CARTESIAN_POINT('',(-2.5,1.11439824619395,-0.928698974469128));
#564=CARTESIAN_POINT('',(-2.5,0.564568343035237,-0.723998172114445));
#565=CARTESIAN_POINT('',(-2.5,-0.564584531265362,-0.724001827911762));
#566=CARTESIAN_POINT('',(-2.5,-1.11477845115344,-0.928905236859674));
#567=CARTESIAN_POINT('',(-2.5,-1.61448939296608,-1.2));
#568=CARTESIAN_POINT('',(-2.5,1.61448939296609,-1.2));
#569=CARTESIAN_POINT('',(-2.5,1.61448939296609,20.9080749503476));
#570=CARTESIAN_POINT('',(-2.49999999999998,7.50000000000001,10.));
#571=CARTESIAN_POINT('',(0.,0.,-5.5));
#572=CARTESIAN_POINT('',(-1.6144893929661,-2.49999999999999,-8.));
#573=CARTESIAN_POINT('',(1.61448939296608,-2.50000000000001,-8.));
#574=CARTESIAN_POINT('',(-7.50000000000001,-2.49999999999997,-8.));
#575=CARTESIAN_POINT('',(-7.50000000000001,-2.49999999999997,-8.));
#576=CARTESIAN_POINT('',(1.61448939296608,-2.50000000000001,20.9080749503476));
#577=CARTESIAN_POINT('',(1.61448939296608,-2.50000000000001,-1.2));
#578=CARTESIAN_POINT('',(-1.6144893929661,-2.49999999999999,-1.2));
#579=CARTESIAN_POINT('',(-1.11439824619395,-2.5,-0.928698974469128));
#580=CARTESIAN_POINT('',(-0.564568343035241,-2.5,-0.723998172114445));
#581=CARTESIAN_POINT('',(0.564584531265356,-2.5,-0.724001827911762));
#582=CARTESIAN_POINT('',(1.11477845115343,-2.5,-0.928905236859674));
#583=CARTESIAN_POINT('',(1.61448939296608,-2.50000000000001,-1.2));
#584=CARTESIAN_POINT('',(-1.6144893929661,-2.49999999999999,-1.2));
#585=CARTESIAN_POINT('',(-1.6144893929661,-2.49999999999999,20.9080749503476));
#586=CARTESIAN_POINT('',(-7.50000000000001,-2.49999999999997,10.));
#587=CARTESIAN_POINT('',(0.,0.,-1.2));
#588=CARTESIAN_POINT('',(2.5,-1.61448939296609,-1.2));
#589=CARTESIAN_POINT('',(2.5,-1.61448939296609,-1.2));
#590=CARTESIAN_POINT('',(2.5,-1.11477845115344,-0.928905236859674));
#591=CARTESIAN_POINT('',(2.5,-0.564584531265366,-0.724001827911762));
#592=CARTESIAN_POINT('',(2.5,0.564568343035231,-0.723998172114445));
#593=CARTESIAN_POINT('',(2.5,1.11439824619394,-0.928698974469128));
#594=CARTESIAN_POINT('',(2.5,1.61448939296609,-1.2));
#595=CARTESIAN_POINT('',(2.5,1.61448939296609,-1.2));
#596=CARTESIAN_POINT('',(0.,0.,-1.2));
#597=CARTESIAN_POINT('',(0.,0.,-1.2));
#598=CARTESIAN_POINT('',(0.,0.,-1.2));
#599=CARTESIAN_POINT('',(0.,0.,0.));
#600=CARTESIAN_POINT('',(0.,0.,-5.5));
#601=CARTESIAN_POINT('',(2.5,-1.61448939296609,-8.));
#602=CARTESIAN_POINT('',(2.5,1.61448939296609,-8.));
#603=CARTESIAN_POINT('',(2.5,-7.5,-8.));
#604=CARTESIAN_POINT('',(2.5,-7.5,-8.));
#605=CARTESIAN_POINT('',(2.5,1.61448939296609,20.9080749503476));
#606=CARTESIAN_POINT('',(2.5,-1.61448939296609,20.9080749503476));
#607=CARTESIAN_POINT('',(2.5,-7.5,10.));
#608=CARTESIAN_POINT('',(0.,0.,-8.8));
#609=CARTESIAN_POINT('',(2.976,0.,-8.8));
#610=CARTESIAN_POINT('',(0.,0.,20.9080749503476));
#611=CARTESIAN_POINT('',(0.,0.,-10.224));
#612=CARTESIAN_POINT('',(0.,0.,-52.));
#613=CARTESIAN_POINT('',(0.,0.,-52.));
#614=CARTESIAN_POINT('',(4.0834708306302,0.,-52.));
#615=CARTESIAN_POINT('',(0.,0.,-52.));
#616=CARTESIAN_POINT('',(0.,0.,-66.25));
#617=CARTESIAN_POINT('',(4.0834708306302,0.,-66.25));
#618=CARTESIAN_POINT('',(0.,0.,20.9080749503476));
#619=CARTESIAN_POINT('',(2.02941992030028E-14,0.,-69.8603468117371));
#620=CARTESIAN_POINT('',(-3.70465318826291,0.,-69.8603468117371));
#621=CARTESIAN_POINT('',(0.,0.,-72.));
#622=CARTESIAN_POINT('',(2.09521897310398E-14,0.,-70.1));
#623=CARTESIAN_POINT('',(3.46500000000001,0.,-70.1));
#624=CARTESIAN_POINT('',(10.5,0.,-70.1));
#625=CARTESIAN_POINT('',(1.99840144432528E-14,0.,-69.1565291693698));
#626=MECHANICAL_DESIGN_GEOMETRIC_PRESENTATION_REPRESENTATION('',(#330,#331,
#332,#333,#334,#335,#336,#337,#338),#627);
#627=(
GEOMETRIC_REPRESENTATION_CONTEXT(3)
GLOBAL_UNCERTAINTY_ASSIGNED_CONTEXT((#628))
GLOBAL_UNIT_ASSIGNED_CONTEXT((#634,#630,#629))
REPRESENTATION_CONTEXT('TOOL','TOP_LEVEL_ASSEMBLY_PART')
);
#628=UNCERTAINTY_MEASURE_WITH_UNIT(LENGTH_MEASURE(0.0508),#634,
'DISTANCE_ACCURACY_VALUE','Maximum Tolerance applied to model');
#629=(
NAMED_UNIT(*)
SI_UNIT($,.STERADIAN.)
SOLID_ANGLE_UNIT()
);
#630=(
CONVERSION_BASED_UNIT('DEGREE',#632)
NAMED_UNIT(#631)
PLANE_ANGLE_UNIT()
);
#631=DIMENSIONAL_EXPONENTS(0.,0.,0.,0.,0.,0.,0.);
#632=PLANE_ANGLE_MEASURE_WITH_UNIT(PLANE_ANGLE_MEASURE(0.0174532925),#633);
#633=(
NAMED_UNIT(*)
PLANE_ANGLE_UNIT()
SI_UNIT($,.RADIAN.)
);
#634=(
LENGTH_UNIT()
NAMED_UNIT(*)
SI_UNIT(.MILLI.,.METRE.)
);
ENDSEC;
END-ISO-10303-21;
