ISO-10303-21;
HEADER;
/* Generated by software containing ST-Developer
 * from STEP Tools, Inc. (www.steptools.com) 
 */
/* OPTION: using custom schema-name function */

FILE_DESCRIPTION(
/* description */ (''),
/* implementation_level */ '2;1');

FILE_NAME(
/* name */ 'TOOL.STP',
/* time_stamp */ '2024-06-11T07:01:53+02:00',
/* author */ (''),
/* organization */ ('SMS'),
/* preprocessor_version */ 'ST-DEVELOPER v16.7',
/* originating_system */ 'SIEMENS PLM Software NX 12.0',
/* authorisation */ '');

FILE_SCHEMA (('AUTOMOTIVE_DESIGN { 1 0 10303 214 3 1 1 1 }'));
ENDSEC;

DATA;
#10=CONSTRUCTIVE_GEOMETRY_REPRESENTATION_RELATIONSHIP(
'supplemental geometry','',#26,#11);
#11=CONSTRUCTIVE_GEOMETRY_REPRESENTATION('supplemental geometry',(#359,
#360,#361),#627);
#12=GEOMETRICALLY_BOUNDED_WIREFRAME_SHAPE_REPRESENTATION('Tool-None',(#27),
#627);
#13=SHAPE_REPRESENTATION_RELATIONSHIP('None',
'relationship between Tool-None and Tool-None',#26,#15);
#14=SHAPE_REPRESENTATION_RELATIONSHIP('None',
'relationship between Tool-None and Tool-None',#26,#12);
#15=ADVANCED_BREP_SHAPE_REPRESENTATION('Tool-None',(#38,#39),#627);
#16=SHAPE_DEFINITION_REPRESENTATION(#17,#26);
#17=PRODUCT_DEFINITION_SHAPE('','',#18);
#18=PRODUCT_DEFINITION(' ','',#20,#19);
#19=PRODUCT_DEFINITION_CONTEXT('part definition',#25,'design');
#20=PRODUCT_DEFINITION_FORMATION_WITH_SPECIFIED_SOURCE(' ',' ',#22,
 .NOT_KNOWN.);
#21=PRODUCT_RELATED_PRODUCT_CATEGORY('part','',(#22));
#22=PRODUCT('Tool','Tool',' ',(#23));
#23=PRODUCT_CONTEXT(' ',#25,'mechanical');
#24=APPLICATION_PROTOCOL_DEFINITION('international standard',
'automotive_design',2010,#25);
#25=APPLICATION_CONTEXT(
'core data for automotive mechanical design processes');
#26=SHAPE_REPRESENTATION('Tool-None',(#358),#627);
#27=GEOMETRIC_CURVE_SET('None',(#500,#501,#502,#322));
#28=SURFACE_STYLE_USAGE(.BOTH.,#30);
#29=SURFACE_STYLE_USAGE(.BOTH.,#31);
#30=SURFACE_SIDE_STYLE('',(#32));
#31=SURFACE_SIDE_STYLE('',(#33));
#32=SURFACE_STYLE_FILL_AREA(#34);
#33=SURFACE_STYLE_FILL_AREA(#35);
#34=FILL_AREA_STYLE('',(#36));
#35=FILL_AREA_STYLE('',(#37));
#36=FILL_AREA_STYLE_COLOUR('',#356);
#37=FILL_AREA_STYLE_COLOUR('',#357);
#38=MANIFOLD_SOLID_BREP('NOCUT',#40);
#39=MANIFOLD_SOLID_BREP('CUT',#41);
#40=CLOSED_SHELL('',(#99,#100,#101,#102,#103,#104,#105,#106,#107,#108,#109,
#110,#111,#112,#113,#114));
#41=CLOSED_SHELL('',(#115,#116,#117,#118,#119));
#42=CONICAL_SURFACE('',#383,0.71888,45.);
#43=CONICAL_SURFACE('',#389,3.0905,45.);
#44=CONICAL_SURFACE('',#397,1.0624853963611,5.78190906231382);
#45=CONICAL_SURFACE('',#400,1.68789515996604,45.0000000000001);
#46=LINE('',#541,#58);
#47=LINE('',#543,#59);
#48=LINE('',#552,#60);
#49=LINE('',#557,#61);
#50=LINE('',#559,#62);
#51=LINE('',#568,#63);
#52=LINE('',#573,#64);
#53=LINE('',#575,#65);
#54=LINE('',#584,#66);
#55=LINE('',#602,#67);
#56=LINE('',#604,#68);
#57=LINE('',#605,#69);
#58=VECTOR('',#427,1.);
#59=VECTOR('',#430,1.);
#60=VECTOR('',#431,1.);
#61=VECTOR('',#436,1.);
#62=VECTOR('',#439,1.);
#63=VECTOR('',#440,1.);
#64=VECTOR('',#445,1.);
#65=VECTOR('',#448,1.);
#66=VECTOR('',#449,1.);
#67=VECTOR('',#464,1.);
#68=VECTOR('',#467,1.);
#69=VECTOR('',#468,1.);
#70=ELLIPSE('',#370,2.43086340809187,1.71888);
#71=ELLIPSE('',#373,2.43086340809187,1.71888);
#72=ELLIPSE('',#376,2.43086340809187,1.71888);
#73=ELLIPSE('',#384,2.43086340809187,1.71888);
#74=PLANE('',#369);
#75=PLANE('',#371);
#76=PLANE('',#372);
#77=PLANE('',#374);
#78=PLANE('',#375);
#79=PLANE('',#377);
#80=PLANE('',#378);
#81=PLANE('',#385);
#82=PLANE('',#386);
#83=PLANE('',#390);
#84=PLANE('',#391);
#85=PLANE('',#393);
#86=PLANE('',#399);
#87=FACE_OUTER_BOUND('',#146,.T.);
#88=FACE_OUTER_BOUND('',#147,.T.);
#89=FACE_OUTER_BOUND('',#148,.T.);
#90=FACE_OUTER_BOUND('',#149,.T.);
#91=FACE_OUTER_BOUND('',#150,.T.);
#92=FACE_OUTER_BOUND('',#151,.T.);
#93=FACE_OUTER_BOUND('',#152,.T.);
#94=FACE_OUTER_BOUND('',#155,.T.);
#95=FACE_OUTER_BOUND('',#156,.T.);
#96=FACE_OUTER_BOUND('',#163,.T.);
#97=FACE_OUTER_BOUND('',#164,.T.);
#98=FACE_OUTER_BOUND('',#169,.T.);
#99=ADVANCED_FACE('',(#124,#125),#120,.T.);
#100=ADVANCED_FACE('',(#126,#127),#121,.T.);
#101=ADVANCED_FACE('',(#87),#74,.F.);
#102=ADVANCED_FACE('',(#88),#75,.T.);
#103=ADVANCED_FACE('',(#89),#76,.T.);
#104=ADVANCED_FACE('',(#90),#77,.T.);
#105=ADVANCED_FACE('',(#91),#78,.T.);
#106=ADVANCED_FACE('',(#92),#79,.T.);
#107=ADVANCED_FACE('',(#93),#80,.T.);
#108=ADVANCED_FACE('',(#128,#129),#42,.T.);
#109=ADVANCED_FACE('',(#94),#81,.T.);
#110=ADVANCED_FACE('',(#95),#82,.T.);
#111=ADVANCED_FACE('',(#130,#131),#122,.T.);
#112=ADVANCED_FACE('',(#132,#133),#43,.T.);
#113=ADVANCED_FACE('',(#134,#135),#83,.T.);
#114=ADVANCED_FACE('',(#96),#84,.T.);
#115=ADVANCED_FACE('',(#97),#85,.T.);
#116=ADVANCED_FACE('',(#136,#137),#123,.T.);
#117=ADVANCED_FACE('',(#138,#139),#44,.T.);
#118=ADVANCED_FACE('',(#98),#86,.F.);
#119=ADVANCED_FACE('',(#140,#141),#45,.T.);
#120=CYLINDRICAL_SURFACE('',#364,1.45789515996606);
#121=CYLINDRICAL_SURFACE('',#367,1.7905);
#122=CYLINDRICAL_SURFACE('',#388,1.71888);
#123=CYLINDRICAL_SURFACE('',#395,1.45789515996606);
#124=FACE_BOUND('',#142,.T.);
#125=FACE_BOUND('',#143,.T.);
#126=FACE_BOUND('',#144,.T.);
#127=FACE_BOUND('',#145,.T.);
#128=FACE_BOUND('',#153,.T.);
#129=FACE_BOUND('',#154,.T.);
#130=FACE_BOUND('',#157,.T.);
#131=FACE_BOUND('',#158,.T.);
#132=FACE_BOUND('',#159,.T.);
#133=FACE_BOUND('',#160,.T.);
#134=FACE_BOUND('',#161,.T.);
#135=FACE_BOUND('',#162,.T.);
#136=FACE_BOUND('',#165,.T.);
#137=FACE_BOUND('',#166,.T.);
#138=FACE_BOUND('',#167,.T.);
#139=FACE_BOUND('',#168,.T.);
#140=FACE_BOUND('',#170,.T.);
#141=FACE_BOUND('',#171,.T.);
#142=EDGE_LOOP('',(#172));
#143=EDGE_LOOP('',(#173));
#144=EDGE_LOOP('',(#174));
#145=EDGE_LOOP('',(#175));
#146=EDGE_LOOP('',(#176));
#147=EDGE_LOOP('',(#177,#178));
#148=EDGE_LOOP('',(#179,#180,#181,#182));
#149=EDGE_LOOP('',(#183,#184));
#150=EDGE_LOOP('',(#185,#186,#187,#188));
#151=EDGE_LOOP('',(#189,#190));
#152=EDGE_LOOP('',(#191,#192,#193,#194));
#153=EDGE_LOOP('',(#195));
#154=EDGE_LOOP('',(#196,#197,#198,#199,#200,#201,#202,#203));
#155=EDGE_LOOP('',(#204,#205));
#156=EDGE_LOOP('',(#206,#207,#208,#209));
#157=EDGE_LOOP('',(#210));
#158=EDGE_LOOP('',(#211,#212,#213,#214,#215,#216,#217,#218,#219,#220,#221,
#222,#223,#224,#225,#226));
#159=EDGE_LOOP('',(#227));
#160=EDGE_LOOP('',(#228));
#161=EDGE_LOOP('',(#229));
#162=EDGE_LOOP('',(#230));
#163=EDGE_LOOP('',(#231));
#164=EDGE_LOOP('',(#232));
#165=EDGE_LOOP('',(#233));
#166=EDGE_LOOP('',(#234));
#167=EDGE_LOOP('',(#235));
#168=EDGE_LOOP('',(#236));
#169=EDGE_LOOP('',(#237));
#170=EDGE_LOOP('',(#238));
#171=EDGE_LOOP('',(#239));
#172=ORIENTED_EDGE('',*,*,#266,.T.);
#173=ORIENTED_EDGE('',*,*,#267,.T.);
#174=ORIENTED_EDGE('',*,*,#268,.T.);
#175=ORIENTED_EDGE('',*,*,#269,.T.);
#176=ORIENTED_EDGE('',*,*,#270,.T.);
#177=ORIENTED_EDGE('',*,*,#271,.T.);
#178=ORIENTED_EDGE('',*,*,#272,.T.);
#179=ORIENTED_EDGE('',*,*,#273,.T.);
#180=ORIENTED_EDGE('',*,*,#274,.F.);
#181=ORIENTED_EDGE('',*,*,#275,.T.);
#182=ORIENTED_EDGE('',*,*,#272,.F.);
#183=ORIENTED_EDGE('',*,*,#276,.T.);
#184=ORIENTED_EDGE('',*,*,#277,.T.);
#185=ORIENTED_EDGE('',*,*,#278,.T.);
#186=ORIENTED_EDGE('',*,*,#279,.F.);
#187=ORIENTED_EDGE('',*,*,#280,.T.);
#188=ORIENTED_EDGE('',*,*,#277,.F.);
#189=ORIENTED_EDGE('',*,*,#281,.T.);
#190=ORIENTED_EDGE('',*,*,#282,.T.);
#191=ORIENTED_EDGE('',*,*,#283,.T.);
#192=ORIENTED_EDGE('',*,*,#284,.F.);
#193=ORIENTED_EDGE('',*,*,#285,.T.);
#194=ORIENTED_EDGE('',*,*,#282,.F.);
#195=ORIENTED_EDGE('',*,*,#270,.F.);
#196=ORIENTED_EDGE('',*,*,#286,.T.);
#197=ORIENTED_EDGE('',*,*,#287,.T.);
#198=ORIENTED_EDGE('',*,*,#288,.T.);
#199=ORIENTED_EDGE('',*,*,#274,.T.);
#200=ORIENTED_EDGE('',*,*,#289,.T.);
#201=ORIENTED_EDGE('',*,*,#279,.T.);
#202=ORIENTED_EDGE('',*,*,#290,.T.);
#203=ORIENTED_EDGE('',*,*,#284,.T.);
#204=ORIENTED_EDGE('',*,*,#291,.T.);
#205=ORIENTED_EDGE('',*,*,#292,.T.);
#206=ORIENTED_EDGE('',*,*,#293,.T.);
#207=ORIENTED_EDGE('',*,*,#287,.F.);
#208=ORIENTED_EDGE('',*,*,#294,.T.);
#209=ORIENTED_EDGE('',*,*,#292,.F.);
#210=ORIENTED_EDGE('',*,*,#295,.F.);
#211=ORIENTED_EDGE('',*,*,#293,.F.);
#212=ORIENTED_EDGE('',*,*,#291,.F.);
#213=ORIENTED_EDGE('',*,*,#294,.F.);
#214=ORIENTED_EDGE('',*,*,#286,.F.);
#215=ORIENTED_EDGE('',*,*,#283,.F.);
#216=ORIENTED_EDGE('',*,*,#281,.F.);
#217=ORIENTED_EDGE('',*,*,#285,.F.);
#218=ORIENTED_EDGE('',*,*,#290,.F.);
#219=ORIENTED_EDGE('',*,*,#278,.F.);
#220=ORIENTED_EDGE('',*,*,#276,.F.);
#221=ORIENTED_EDGE('',*,*,#280,.F.);
#222=ORIENTED_EDGE('',*,*,#289,.F.);
#223=ORIENTED_EDGE('',*,*,#273,.F.);
#224=ORIENTED_EDGE('',*,*,#271,.F.);
#225=ORIENTED_EDGE('',*,*,#275,.F.);
#226=ORIENTED_EDGE('',*,*,#288,.F.);
#227=ORIENTED_EDGE('',*,*,#295,.T.);
#228=ORIENTED_EDGE('',*,*,#268,.F.);
#229=ORIENTED_EDGE('',*,*,#269,.F.);
#230=ORIENTED_EDGE('',*,*,#266,.F.);
#231=ORIENTED_EDGE('',*,*,#267,.F.);
#232=ORIENTED_EDGE('',*,*,#296,.F.);
#233=ORIENTED_EDGE('',*,*,#297,.F.);
#234=ORIENTED_EDGE('',*,*,#296,.T.);
#235=ORIENTED_EDGE('',*,*,#297,.T.);
#236=ORIENTED_EDGE('',*,*,#298,.T.);
#237=ORIENTED_EDGE('',*,*,#299,.T.);
#238=ORIENTED_EDGE('',*,*,#298,.F.);
#239=ORIENTED_EDGE('',*,*,#299,.F.);
#240=VERTEX_POINT('',#526);
#241=VERTEX_POINT('',#528);
#242=VERTEX_POINT('',#531);
#243=VERTEX_POINT('',#533);
#244=VERTEX_POINT('',#536);
#245=VERTEX_POINT('',#539);
#246=VERTEX_POINT('',#540);
#247=VERTEX_POINT('',#544);
#248=VERTEX_POINT('',#551);
#249=VERTEX_POINT('',#555);
#250=VERTEX_POINT('',#556);
#251=VERTEX_POINT('',#560);
#252=VERTEX_POINT('',#567);
#253=VERTEX_POINT('',#571);
#254=VERTEX_POINT('',#572);
#255=VERTEX_POINT('',#576);
#256=VERTEX_POINT('',#583);
#257=VERTEX_POINT('',#587);
#258=VERTEX_POINT('',#594);
#259=VERTEX_POINT('',#600);
#260=VERTEX_POINT('',#601);
#261=VERTEX_POINT('',#608);
#262=VERTEX_POINT('',#614);
#263=VERTEX_POINT('',#617);
#264=VERTEX_POINT('',#620);
#265=VERTEX_POINT('',#623);
#266=EDGE_CURVE('',#240,#240,#300,.T.);
#267=EDGE_CURVE('',#241,#241,#301,.T.);
#268=EDGE_CURVE('',#242,#242,#302,.T.);
#269=EDGE_CURVE('',#243,#243,#303,.T.);
#270=EDGE_CURVE('',#244,#244,#304,.T.);
#271=EDGE_CURVE('',#245,#246,#70,.T.);
#272=EDGE_CURVE('',#246,#245,#46,.T.);
#273=EDGE_CURVE('',#246,#247,#47,.T.);
#274=EDGE_CURVE('',#248,#247,#323,.T.);
#275=EDGE_CURVE('',#248,#245,#48,.T.);
#276=EDGE_CURVE('',#249,#250,#71,.T.);
#277=EDGE_CURVE('',#250,#249,#49,.T.);
#278=EDGE_CURVE('',#250,#251,#50,.T.);
#279=EDGE_CURVE('',#252,#251,#324,.T.);
#280=EDGE_CURVE('',#252,#249,#51,.T.);
#281=EDGE_CURVE('',#253,#254,#72,.T.);
#282=EDGE_CURVE('',#254,#253,#52,.T.);
#283=EDGE_CURVE('',#254,#255,#53,.T.);
#284=EDGE_CURVE('',#256,#255,#325,.T.);
#285=EDGE_CURVE('',#256,#253,#54,.T.);
#286=EDGE_CURVE('',#255,#257,#305,.T.);
#287=EDGE_CURVE('',#257,#258,#326,.T.);
#288=EDGE_CURVE('',#258,#248,#306,.T.);
#289=EDGE_CURVE('',#247,#252,#307,.T.);
#290=EDGE_CURVE('',#251,#256,#308,.T.);
#291=EDGE_CURVE('',#259,#260,#73,.T.);
#292=EDGE_CURVE('',#260,#259,#55,.T.);
#293=EDGE_CURVE('',#260,#258,#56,.T.);
#294=EDGE_CURVE('',#257,#259,#57,.T.);
#295=EDGE_CURVE('',#261,#261,#309,.T.);
#296=EDGE_CURVE('',#262,#262,#310,.T.);
#297=EDGE_CURVE('',#263,#263,#311,.T.);
#298=EDGE_CURVE('',#264,#264,#312,.T.);
#299=EDGE_CURVE('',#265,#265,#313,.T.);
#300=CIRCLE('',#362,1.45789515996606);
#301=CIRCLE('',#363,1.45789515996606);
#302=CIRCLE('',#365,1.7905);
#303=CIRCLE('',#366,1.7905);
#304=CIRCLE('',#368,0.71888);
#305=CIRCLE('',#379,1.71888);
#306=CIRCLE('',#380,1.71888);
#307=CIRCLE('',#381,1.71888);
#308=CIRCLE('',#382,1.71888);
#309=CIRCLE('',#387,1.71888);
#310=CIRCLE('',#392,1.45789515996606);
#311=CIRCLE('',#394,1.45789515996606);
#312=CIRCLE('',#396,1.28978641155625);
#313=CIRCLE('',#398,0.944999999999991);
#314=CURVE_STYLE('',#318,POSITIVE_LENGTH_MEASURE(0.18),#328);
#315=CURVE_STYLE('',#319,POSITIVE_LENGTH_MEASURE(0.13),#355);
#316=CURVE_STYLE('',#320,POSITIVE_LENGTH_MEASURE(0.18),#354);
#317=CURVE_STYLE('',#321,POSITIVE_LENGTH_MEASURE(0.18),#354);
#318=DRAUGHTING_PRE_DEFINED_CURVE_FONT('continuous');
#319=DRAUGHTING_PRE_DEFINED_CURVE_FONT('continuous');
#320=DRAUGHTING_PRE_DEFINED_CURVE_FONT('continuous');
#321=DRAUGHTING_PRE_DEFINED_CURVE_FONT('continuous');
#322=B_SPLINE_CURVE_WITH_KNOTS('CUTTING PART LINE',3,(#503,#504,#505,#506,
#507,#508,#509,#510,#511,#512,#513,#514,#515,#516,#517,#518,#519,#520,#521),
 .UNSPECIFIED.,.T.,.F.,(4,3,3,3,3,3,4),(0.,0.402764695594752,0.445956214556589,
0.908120925938557,0.936117442106028,0.9505630999044,1.),.UNSPECIFIED.);
#323=B_SPLINE_CURVE_WITH_KNOTS('',3,(#545,#546,#547,#548,#549,#550),
 .UNSPECIFIED.,.F.,.F.,(4,2,4),(0.,0.5,1.),.UNSPECIFIED.);
#324=B_SPLINE_CURVE_WITH_KNOTS('',3,(#561,#562,#563,#564,#565,#566),
 .UNSPECIFIED.,.F.,.F.,(4,2,4),(0.,0.5,1.),.UNSPECIFIED.);
#325=B_SPLINE_CURVE_WITH_KNOTS('',3,(#577,#578,#579,#580,#581,#582),
 .UNSPECIFIED.,.F.,.F.,(4,2,4),(0.,0.5,1.),.UNSPECIFIED.);
#326=B_SPLINE_CURVE_WITH_KNOTS('',3,(#588,#589,#590,#591,#592,#593),
 .UNSPECIFIED.,.F.,.F.,(4,2,4),(0.,0.5,1.),.UNSPECIFIED.);
#327=DRAUGHTING_PRE_DEFINED_COLOUR('white');
#328=DRAUGHTING_PRE_DEFINED_COLOUR('blue');
#329=PRESENTATION_LAYER_ASSIGNMENT('1','Layer 1',(#500,#501,#502,#322,#359,
#360,#361,#38,#39));
#330=STYLED_ITEM('',(#339),#500);
#331=STYLED_ITEM('',(#340),#501);
#332=STYLED_ITEM('',(#341),#502);
#333=STYLED_ITEM('',(#342),#322);
#334=STYLED_ITEM('',(#343),#359);
#335=STYLED_ITEM('',(#344),#360);
#336=STYLED_ITEM('',(#345),#361);
#337=STYLED_ITEM('',(#346),#38);
#338=STYLED_ITEM('',(#347),#39);
#339=PRESENTATION_STYLE_ASSIGNMENT((#348));
#340=PRESENTATION_STYLE_ASSIGNMENT((#349));
#341=PRESENTATION_STYLE_ASSIGNMENT((#350));
#342=PRESENTATION_STYLE_ASSIGNMENT((#314));
#343=PRESENTATION_STYLE_ASSIGNMENT((#315));
#344=PRESENTATION_STYLE_ASSIGNMENT((#316));
#345=PRESENTATION_STYLE_ASSIGNMENT((#317));
#346=PRESENTATION_STYLE_ASSIGNMENT((#28));
#347=PRESENTATION_STYLE_ASSIGNMENT((#29));
#348=POINT_STYLE('',#351,POSITIVE_LENGTH_MEASURE(3.),#354);
#349=POINT_STYLE('',#352,POSITIVE_LENGTH_MEASURE(3.),#327);
#350=POINT_STYLE('',#353,POSITIVE_LENGTH_MEASURE(3.),#354);
#351=PRE_DEFINED_POINT_MARKER_SYMBOL('plus');
#352=PRE_DEFINED_POINT_MARKER_SYMBOL('plus');
#353=PRE_DEFINED_POINT_MARKER_SYMBOL('plus');
#354=COLOUR_RGB('Medium Maroon',0.6,0.4,0.4);
#355=COLOUR_RGB('Silver Gray',0.6,0.6,0.6);
#356=COLOUR_RGB('TLS_NOCUT',0.498023956664378,0.498023956664378,0.498023956664378);
#357=COLOUR_RGB('TLS_CUT',0.8,0.8,0.8);
#358=AXIS2_PLACEMENT_3D('',#499,#401,#402);
#359=AXIS2_PLACEMENT_3D('PCS',#522,#403,#404);
#360=AXIS2_PLACEMENT_3D('MCS',#523,#405,#406);
#361=AXIS2_PLACEMENT_3D('CIP',#524,#407,#408);
#362=AXIS2_PLACEMENT_3D('',#525,#409,#410);
#363=AXIS2_PLACEMENT_3D('',#527,#411,#412);
#364=AXIS2_PLACEMENT_3D('',#529,#413,#414);
#365=AXIS2_PLACEMENT_3D('',#530,#415,#416);
#366=AXIS2_PLACEMENT_3D('',#532,#417,#418);
#367=AXIS2_PLACEMENT_3D('',#534,#419,#420);
#368=AXIS2_PLACEMENT_3D('',#535,#421,#422);
#369=AXIS2_PLACEMENT_3D('',#537,#423,#424);
#370=AXIS2_PLACEMENT_3D('',#538,#425,#426);
#371=AXIS2_PLACEMENT_3D('',#542,#428,#429);
#372=AXIS2_PLACEMENT_3D('',#553,#432,#433);
#373=AXIS2_PLACEMENT_3D('',#554,#434,#435);
#374=AXIS2_PLACEMENT_3D('',#558,#437,#438);
#375=AXIS2_PLACEMENT_3D('',#569,#441,#442);
#376=AXIS2_PLACEMENT_3D('',#570,#443,#444);
#377=AXIS2_PLACEMENT_3D('',#574,#446,#447);
#378=AXIS2_PLACEMENT_3D('',#585,#450,#451);
#379=AXIS2_PLACEMENT_3D('',#586,#452,#453);
#380=AXIS2_PLACEMENT_3D('',#595,#454,#455);
#381=AXIS2_PLACEMENT_3D('',#596,#456,#457);
#382=AXIS2_PLACEMENT_3D('',#597,#458,#459);
#383=AXIS2_PLACEMENT_3D('',#598,#460,#461);
#384=AXIS2_PLACEMENT_3D('',#599,#462,#463);
#385=AXIS2_PLACEMENT_3D('',#603,#465,#466);
#386=AXIS2_PLACEMENT_3D('',#606,#469,#470);
#387=AXIS2_PLACEMENT_3D('',#607,#471,#472);
#388=AXIS2_PLACEMENT_3D('',#609,#473,#474);
#389=AXIS2_PLACEMENT_3D('',#610,#475,#476);
#390=AXIS2_PLACEMENT_3D('',#611,#477,#478);
#391=AXIS2_PLACEMENT_3D('',#612,#479,#480);
#392=AXIS2_PLACEMENT_3D('',#613,#481,#482);
#393=AXIS2_PLACEMENT_3D('',#615,#483,#484);
#394=AXIS2_PLACEMENT_3D('',#616,#485,#486);
#395=AXIS2_PLACEMENT_3D('',#618,#487,#488);
#396=AXIS2_PLACEMENT_3D('',#619,#489,#490);
#397=AXIS2_PLACEMENT_3D('',#621,#491,#492);
#398=AXIS2_PLACEMENT_3D('',#622,#493,#494);
#399=AXIS2_PLACEMENT_3D('',#624,#495,#496);
#400=AXIS2_PLACEMENT_3D('',#625,#497,#498);
#401=DIRECTION('',(0.,0.,1.));
#402=DIRECTION('',(1.,0.,0.));
#403=DIRECTION('',(0.,0.,1.));
#404=DIRECTION('',(1.,0.,0.));
#405=DIRECTION('',(0.,0.,1.));
#406=DIRECTION('',(1.,0.,0.));
#407=DIRECTION('',(0.,0.,1.));
#408=DIRECTION('',(1.,0.,0.));
#409=DIRECTION('',(0.,0.,-1.));
#410=DIRECTION('',(1.,0.,0.));
#411=DIRECTION('',(0.,0.,1.));
#412=DIRECTION('',(-1.,0.,0.));
#413=DIRECTION('',(0.,0.,1.));
#414=DIRECTION('',(1.,0.,0.));
#415=DIRECTION('',(0.,0.,-1.));
#416=DIRECTION('',(-1.,0.,0.));
#417=DIRECTION('',(0.,0.,1.));
#418=DIRECTION('',(-1.,0.,0.));
#419=DIRECTION('',(0.,0.,1.));
#420=DIRECTION('',(1.,0.,0.));
#421=DIRECTION('',(0.,0.,1.));
#422=DIRECTION('',(1.,0.,0.));
#423=DIRECTION('',(6.10173582672709E-17,0.,-1.));
#424=DIRECTION('',(-1.,0.,-6.10173582672709E-17));
#425=DIRECTION('',(8.28344032153662E-16,0.707106781186548,0.707106781186548));
#426=DIRECTION('',(-8.28344032153662E-16,-0.707106781186548,0.707106781186548));
#427=DIRECTION('',(1.,-1.17145536458252E-15,0.));
#428=DIRECTION('',(8.28344032153662E-16,0.707106781186548,0.707106781186548));
#429=DIRECTION('',(8.28330459778925E-16,0.707106781186548,-0.707106781186548));
#430=DIRECTION('',(0.,0.,1.));
#431=DIRECTION('',(0.,0.,-1.));
#432=DIRECTION('',(1.17145536458252E-15,1.,0.));
#433=DIRECTION('',(0.,0.,-1.));
#434=DIRECTION('',(-0.707106781186548,1.65668806430732E-15,0.707106781186548));
#435=DIRECTION('',(0.707106781186548,-1.65668806430732E-15,0.707106781186548));
#436=DIRECTION('',(2.34291072916505E-15,1.,0.));
#437=DIRECTION('',(-0.707106781186548,1.65668806430732E-15,0.707106781186548));
#438=DIRECTION('',(-0.707106781186548,1.65666091955785E-15,-0.707106781186548));
#439=DIRECTION('',(0.,0.,1.));
#440=DIRECTION('',(0.,0.,-1.));
#441=DIRECTION('',(-1.,2.34291072916505E-15,0.));
#442=DIRECTION('',(0.,0.,-1.));
#443=DIRECTION('',(-2.64204134232936E-15,-0.707106781186548,0.707106781186548));
#444=DIRECTION('',(2.64204134232936E-15,0.707106781186548,0.707106781186548));
#445=DIRECTION('',(-1.,3.7364106986726E-15,0.));
#446=DIRECTION('',(-2.64204134232936E-15,-0.707106781186548,0.707106781186548));
#447=DIRECTION('',(-2.64198385391268E-15,-0.707106781186548,-0.707106781186548));
#448=DIRECTION('',(0.,0.,1.));
#449=DIRECTION('',(0.,0.,-1.));
#450=DIRECTION('',(-3.7364106986726E-15,-1.,0.));
#451=DIRECTION('',(0.,0.,-1.));
#452=DIRECTION('',(0.,0.,1.));
#453=DIRECTION('',(-1.,0.,0.));
#454=DIRECTION('',(0.,0.,1.));
#455=DIRECTION('',(-1.,0.,0.));
#456=DIRECTION('',(0.,0.,1.));
#457=DIRECTION('',(-1.,0.,0.));
#458=DIRECTION('',(0.,0.,1.));
#459=DIRECTION('',(-1.,0.,0.));
#460=DIRECTION('',(0.,0.,-1.));
#461=DIRECTION('',(-1.,0.,0.));
#462=DIRECTION('',(0.707106781186548,0.,0.707106781186548));
#463=DIRECTION('',(-0.707106781186548,0.,0.707106781186548));
#464=DIRECTION('',(0.,-1.,0.));
#465=DIRECTION('',(0.707106781186548,0.,0.707106781186548));
#466=DIRECTION('',(0.707106781186548,0.,-0.707106781186548));
#467=DIRECTION('',(0.,0.,1.));
#468=DIRECTION('',(0.,0.,-1.));
#469=DIRECTION('',(1.,0.,0.));
#470=DIRECTION('',(0.,0.,-1.));
#471=DIRECTION('',(0.,0.,-1.));
#472=DIRECTION('',(1.,0.,0.));
#473=DIRECTION('',(0.,0.,1.));
#474=DIRECTION('',(1.,0.,0.));
#475=DIRECTION('',(0.,0.,-1.));
#476=DIRECTION('',(-1.,0.,8.30101838736252E-17));
#477=DIRECTION('',(0.,0.,-1.));
#478=DIRECTION('',(-1.,0.,0.));
#479=DIRECTION('',(0.,0.,-1.));
#480=DIRECTION('',(-1.,0.,0.));
#481=DIRECTION('',(0.,0.,-1.));
#482=DIRECTION('',(1.,0.,0.));
#483=DIRECTION('',(0.,0.,1.));
#484=DIRECTION('',(1.,0.,0.));
#485=DIRECTION('',(0.,0.,-1.));
#486=DIRECTION('',(1.,0.,0.));
#487=DIRECTION('',(0.,0.,1.));
#488=DIRECTION('',(1.,0.,0.));
#489=DIRECTION('',(0.,0.,1.));
#490=DIRECTION('',(-1.,0.,0.));
#491=DIRECTION('',(0.,0.,1.));
#492=DIRECTION('',(1.,0.,3.39078788801216E-16));
#493=DIRECTION('',(9.70117405257488E-17,0.,-1.));
#494=DIRECTION('',(1.,0.,0.));
#495=DIRECTION('',(-9.70117405257488E-17,0.,1.));
#496=DIRECTION('',(1.,0.,9.71445146547012E-17));
#497=DIRECTION('',(-9.86633871840264E-17,0.,1.));
#498=DIRECTION('',(1.,0.,6.23448136259964E-17));
#499=CARTESIAN_POINT('',(0.,0.,0.));
#500=CARTESIAN_POINT('',(0.,0.,-19.83));
#501=CARTESIAN_POINT('CRP',(-1.45789515996606,0.,-47.7));
#502=CARTESIAN_POINT('CIP_DCSYS',(0.,0.,-47.7));
#503=CARTESIAN_POINT('',(-1.45789515996606,0.,-45.795));
#504=CARTESIAN_POINT('',(-1.45789515996606,0.,-41.2633333333333));
#505=CARTESIAN_POINT('',(-1.45789515996606,0.,-36.7316666666667));
#506=CARTESIAN_POINT('',(-1.45789515996606,0.,-32.2));
#507=CARTESIAN_POINT('',(-0.971930106644038,0.,-32.2));
#508=CARTESIAN_POINT('',(-0.485965053322019,0.,-32.2));
#509=CARTESIAN_POINT('',(0.,0.,-32.2));
#510=CARTESIAN_POINT('',(0.,0.,-37.4));
#511=CARTESIAN_POINT('',(0.,0.,-42.6));
#512=CARTESIAN_POINT('',(0.,0.,-47.8));
#513=CARTESIAN_POINT('',(-0.314999999999992,0.,-47.8));
#514=CARTESIAN_POINT('',(-0.629999999999985,0.,-47.8));
#515=CARTESIAN_POINT('',(-0.944999999999978,0.,-47.8));
#516=CARTESIAN_POINT('',(-1.05992880385207,0.,-47.6850711961479));
#517=CARTESIAN_POINT('',(-1.17485760770415,0.,-47.5701423922958));
#518=CARTESIAN_POINT('',(-1.28978641155625,0.,-47.4552135884437));
#519=CARTESIAN_POINT('',(-1.34582266102619,0.,-46.9018090589625));
#520=CARTESIAN_POINT('',(-1.40185891049612,0.,-46.3484045294813));
#521=CARTESIAN_POINT('',(-1.45789515996606,0.,-45.795));
#522=CARTESIAN_POINT('',(0.,0.,0.));
#523=CARTESIAN_POINT('',(0.,0.,-19.83));
#524=CARTESIAN_POINT('',(0.,0.,-47.7));
#525=CARTESIAN_POINT('',(0.,0.,-30.7));
#526=CARTESIAN_POINT('',(1.45789515996606,0.,-30.7));
#527=CARTESIAN_POINT('',(0.,0.,-32.2));
#528=CARTESIAN_POINT('',(-1.45789515996606,0.,-32.2));
#529=CARTESIAN_POINT('',(0.,0.,20.9080749503476));
#530=CARTESIAN_POINT('',(0.,0.,-5.38462));
#531=CARTESIAN_POINT('',(-1.7905,0.,-5.38462));
#532=CARTESIAN_POINT('',(0.,0.,-30.7));
#533=CARTESIAN_POINT('',(-1.7905,0.,-30.7));
#534=CARTESIAN_POINT('',(0.,0.,20.9080749503476));
#535=CARTESIAN_POINT('',(0.,0.,0.));
#536=CARTESIAN_POINT('',(0.71888,0.,0.));
#537=CARTESIAN_POINT('',(2.09050000000001,0.,6.37783937288649E-17));
#538=CARTESIAN_POINT('',(0.,0.,-3.435));
#539=CARTESIAN_POINT('',(1.00425268453712,1.395,-4.83));
#540=CARTESIAN_POINT('',(-1.00425268453711,1.395,-4.83));
#541=CARTESIAN_POINT('',(4.185,1.39499999999999,-4.83));
#542=CARTESIAN_POINT('',(4.185,1.39499999999999,-4.83));
#543=CARTESIAN_POINT('',(-1.00425268453711,1.395,20.9080749503476));
#544=CARTESIAN_POINT('',(-1.00425268453711,1.395,-1.));
#545=CARTESIAN_POINT('',(1.00425268453712,1.395,-1.));
#546=CARTESIAN_POINT('',(0.696615933759317,1.395,-0.820263757312388));
#547=CARTESIAN_POINT('',(0.354776240015704,1.395,-0.67617831561645));
#548=CARTESIAN_POINT('',(-0.354317491186553,1.395,-0.676061722098691));
#549=CARTESIAN_POINT('',(-0.698107960153838,1.395,-0.821135471167978));
#550=CARTESIAN_POINT('',(-1.00425268453712,1.395,-0.999999999999998));
#551=CARTESIAN_POINT('',(1.00425268453712,1.395,-1.));
#552=CARTESIAN_POINT('',(1.00425268453712,1.395,20.9080749503476));
#553=CARTESIAN_POINT('',(4.185,1.39499999999999,10.));
#554=CARTESIAN_POINT('',(0.,0.,-3.435));
#555=CARTESIAN_POINT('',(-1.395,1.00425268453712,-4.83));
#556=CARTESIAN_POINT('',(-1.395,-1.00425268453711,-4.83));
#557=CARTESIAN_POINT('',(-1.39499999999999,4.185,-4.83));
#558=CARTESIAN_POINT('',(-1.39499999999999,4.185,-4.83));
#559=CARTESIAN_POINT('',(-1.395,-1.00425268453711,20.9080749503476));
#560=CARTESIAN_POINT('',(-1.395,-1.00425268453711,-1.));
#561=CARTESIAN_POINT('',(-1.395,1.00425268453712,-0.999999999999998));
#562=CARTESIAN_POINT('',(-1.395,0.698107960153843,-0.821135471167979));
#563=CARTESIAN_POINT('',(-1.395,0.354317491186559,-0.676061722098692));
#564=CARTESIAN_POINT('',(-1.395,-0.354776240015695,-0.67617831561645));
#565=CARTESIAN_POINT('',(-1.395,-0.696615933759308,-0.820263757312386));
#566=CARTESIAN_POINT('',(-1.395,-1.00425268453711,-1.));
#567=CARTESIAN_POINT('',(-1.395,1.00425268453712,-1.));
#568=CARTESIAN_POINT('',(-1.395,1.00425268453712,20.9080749503476));
#569=CARTESIAN_POINT('',(-1.39499999999999,4.185,10.));
#570=CARTESIAN_POINT('',(0.,0.,-3.435));
#571=CARTESIAN_POINT('',(-1.00425268453712,-1.395,-4.83));
#572=CARTESIAN_POINT('',(1.00425268453711,-1.395,-4.83));
#573=CARTESIAN_POINT('',(-4.18500000000001,-1.39499999999998,-4.83));
#574=CARTESIAN_POINT('',(-4.18500000000001,-1.39499999999998,-4.83));
#575=CARTESIAN_POINT('',(1.00425268453711,-1.395,20.9080749503476));
#576=CARTESIAN_POINT('',(1.00425268453711,-1.395,-1.));
#577=CARTESIAN_POINT('',(-1.00425268453712,-1.395,-0.999999999999998));
#578=CARTESIAN_POINT('',(-0.698107960153845,-1.395,-0.821135471167979));
#579=CARTESIAN_POINT('',(-0.354317491186562,-1.395,-0.676061722098692));
#580=CARTESIAN_POINT('',(0.354776240015693,-1.395,-0.676178315616449));
#581=CARTESIAN_POINT('',(0.696615933759305,-1.395,-0.820263757312386));
#582=CARTESIAN_POINT('',(1.00425268453711,-1.395,-1.));
#583=CARTESIAN_POINT('',(-1.00425268453712,-1.395,-1.));
#584=CARTESIAN_POINT('',(-1.00425268453712,-1.395,20.9080749503476));
#585=CARTESIAN_POINT('',(-4.18500000000001,-1.39499999999998,10.));
#586=CARTESIAN_POINT('',(0.,0.,-1.));
#587=CARTESIAN_POINT('',(1.395,-1.00425268453712,-1.));
#588=CARTESIAN_POINT('',(1.395,-1.00425268453712,-1.));
#589=CARTESIAN_POINT('',(1.395,-0.696615933759315,-0.820263757312388));
#590=CARTESIAN_POINT('',(1.395,-0.354776240015702,-0.67617831561645));
#591=CARTESIAN_POINT('',(1.395,0.354317491186555,-0.676061722098691));
#592=CARTESIAN_POINT('',(1.395,0.698107960153839,-0.821135471167978));
#593=CARTESIAN_POINT('',(1.395,1.00425268453712,-0.999999999999998));
#594=CARTESIAN_POINT('',(1.395,1.00425268453712,-1.));
#595=CARTESIAN_POINT('',(0.,0.,-1.));
#596=CARTESIAN_POINT('',(0.,0.,-1.));
#597=CARTESIAN_POINT('',(0.,0.,-1.));
#598=CARTESIAN_POINT('',(0.,0.,0.));
#599=CARTESIAN_POINT('',(0.,0.,-3.435));
#600=CARTESIAN_POINT('',(1.395,-1.00425268453712,-4.83));
#601=CARTESIAN_POINT('',(1.395,1.00425268453711,-4.83));
#602=CARTESIAN_POINT('',(1.395,-4.185,-4.83));
#603=CARTESIAN_POINT('',(1.395,-4.185,-4.83));
#604=CARTESIAN_POINT('',(1.395,1.00425268453712,20.9080749503476));
#605=CARTESIAN_POINT('',(1.395,-1.00425268453712,20.9080749503476));
#606=CARTESIAN_POINT('',(1.395,-4.185,10.));
#607=CARTESIAN_POINT('',(0.,0.,-5.313));
#608=CARTESIAN_POINT('',(1.71888,0.,-5.313));
#609=CARTESIAN_POINT('',(0.,0.,20.9080749503476));
#610=CARTESIAN_POINT('',(0.,0.,-6.68462));
#611=CARTESIAN_POINT('',(3.45789515996606,0.,-30.7));
#612=CARTESIAN_POINT('',(0.,0.,-32.2));
#613=CARTESIAN_POINT('',(0.,0.,-32.2));
#614=CARTESIAN_POINT('',(1.45789515996606,0.,-32.2));
#615=CARTESIAN_POINT('',(0.,0.,-32.2));
#616=CARTESIAN_POINT('',(0.,0.,-45.795));
#617=CARTESIAN_POINT('',(1.45789515996606,0.,-45.795));
#618=CARTESIAN_POINT('',(0.,0.,20.9080749503476));
#619=CARTESIAN_POINT('',(1.33619550530876E-14,0.,-47.4552135884437));
#620=CARTESIAN_POINT('',(-1.28978641155624,0.,-47.4552135884437));
#621=CARTESIAN_POINT('',(0.,0.,-49.7));
#622=CARTESIAN_POINT('',(1.3395079653782E-14,0.,-47.8));
#623=CARTESIAN_POINT('',(0.945000000000004,0.,-47.8));
#624=CARTESIAN_POINT('',(10.5,0.,-47.8));
#625=CARTESIAN_POINT('',(1.33226762955019E-14,0.,-47.057104840034));
#626=MECHANICAL_DESIGN_GEOMETRIC_PRESENTATION_REPRESENTATION('',(#330,#331,
#332,#333,#334,#335,#336,#337,#338),#627);
#627=(
GEOMETRIC_REPRESENTATION_CONTEXT(3)
GLOBAL_UNCERTAINTY_ASSIGNED_CONTEXT((#628))
GLOBAL_UNIT_ASSIGNED_CONTEXT((#634,#630,#629))
REPRESENTATION_CONTEXT('TOOL','TOP_LEVEL_ASSEMBLY_PART')
);
#628=UNCERTAINTY_MEASURE_WITH_UNIT(LENGTH_MEASURE(0.0508),#634,
'DISTANCE_ACCURACY_VALUE','Maximum Tolerance applied to model');
#629=(
NAMED_UNIT(*)
SI_UNIT($,.STERADIAN.)
SOLID_ANGLE_UNIT()
);
#630=(
CONVERSION_BASED_UNIT('DEGREE',#632)
NAMED_UNIT(#631)
PLANE_ANGLE_UNIT()
);
#631=DIMENSIONAL_EXPONENTS(0.,0.,0.,0.,0.,0.,0.);
#632=PLANE_ANGLE_MEASURE_WITH_UNIT(PLANE_ANGLE_MEASURE(0.0174532925),#633);
#633=(
NAMED_UNIT(*)
PLANE_ANGLE_UNIT()
SI_UNIT($,.RADIAN.)
);
#634=(
LENGTH_UNIT()
NAMED_UNIT(*)
SI_UNIT(.MILLI.,.METRE.)
);
ENDSEC;
END-ISO-10303-21;
